Song name
# A B C D E F G H I J K L M N O P Q R S T U V W X Y Z

Taylor Swift - White Horse tab

White Horse By Taylor Swift

This is my first tab and this is my version of white horse, played kinda
fast so not really for beginners, it sounds just like the song, and the
plicking rhythm matches up with the words once you get the rhythm down.
I love this version and hopefully you do too, please comment and let me
know what you think =]

Standard tuning: EADGBe no capo


Intro

e--3---3---3---3---3---3---3---3---3---3---3---3---|
B-1-1-1-1-1---1-1-1-1-1---1-1-1-1-1---1-1-1-1-1----|
G--------------------------------------------------|
D-------------3---3---3---------------3---3---3----|
A-3---3---3---------------0---0---0----------------| x1
E--------------------------------------------------|


Verse 1

   Say your sorry that face of an angel comes out just when you need it to.
   As I pace back and forth all this time cause I honestly believed in you.
e--3---3---3---3---3---3---3---3---3---3---3---3---|
B-1-1-1-1-1---1-1-1-1-1---1-1-1-1-1---1-1-1-1-1----|
G--------------------------------------------------|
D-------------3---3---3---------------3---3---3----|
A-3---3---3---------------0---0---0----------------| x2
E--------------------------------------------------|


Pre-Chorus

  Holdin' on the days drag on, stupid girl I shoulda known I shoulda
known....
e--3---3---3---3---3---3---3---3---3---------------|
B-1-1-1-1-1---1-1-1-1-1---1-1-1-1-1-1--------------|
G--------------------------------------------------|
D-------------3---3---3-------------3--------------|
A-0---0---0---------------0---0---0----------------| x1
E--------------------------------------------------|

Chorus

That I'm not a princess, this ain't a fairytail, I'm not the one you sweep
off her feet, lead her up the stairwell. This ain't hollywood, this is a
small town, there in my rear view mirror disapperin now, and it's
e--3---3---3---3---3---3---3---3---3---3---3---3---|
B-1-1-1-1-1---1-1-1-1-1---1-1-1-1-1---1-1-1-1-1----|
G--------------------------------------------------|
D-------------3---3---3---------------3---3---3----|
A-3---3---3---------------0---0---0----------------| x2
E--------------------------------------------------|

too late for you and your white horse, to come around.
e--3---3---3----|
B-1-1-1-1-1-1---|
G---------------|
D-----------3---|
A-0---0---0-----| x1
E---------------|


Intrelude(silent no words)

e--3---3---3---3---3---3----|
B-1-1-1-1-1---1-1-1-1-1-----|
G---------------------------|
D---------------------------|
A-3---3---3---3---3---3-----| x1
E---------------------------|

Verse 2

    Baby I was naive, got lost in your eyes, I never really had a chance.
    My mistake I didn't know to be in love you had to fight to have the
upper hand.
e--3---3---3---3---3---3---3---3---3---3---3---3---|
B-1-1-1-1-1---1-1-1-1-1---1-1-1-1-1---1-1-1-1-1----|
G--------------------------------------------------|
D-------------3---3---3---------------3---3---3----|
A-3---3---3---------------0---0---0----------------| x2
E--------------------------------------------------|

Pre-Chorus

  Holdin' on the days drag on, stupid girl I shoulda known I shoulda known.
e--3---3---3---3---3---3---3---3---3---------------|
B-1-1-1-1-1---1-1-1-1-1---1-1-1-1-1-1--------------|
G--------------------------------------------------|
D-------------3---3---3-------------3--------------|
A-0---0---0---------------0---0---0----------------| x1
E--------------------------------------------------|

Chorus

That I'm not a princess, this ain't a fairytail, I'm not the one you sweep
off her feet, lead her up the stairwell. This ain't hollywood, this is a
small town, there in my rear view mirror disapperin now, and it's
e--3---3---3---3---3---3---3---3---3---3---3---3---|
B-1-1-1-1-1---1-1-1-1-1---1-1-1-1-1---1-1-1-1-1----|
G--------------------------------------------------|
D-------------3---3---3---------------3---3---3----|
A-3---3---3---------------0---0---0----------------| x2
E--------------------------------------------------|

too loate for you and your white horse to come around.
e--3---3---3----|
B-1-1-1-1-1-1---|
G---------------|
D-----------3---|
A-0---0---0-----| x1
E---------------|


Intrelude(silent no words)

e--3---3---3---3---3---3----|
B-1-1-1-1-1---1-1-1-1-1-----|
G---------------------------|
D---------------------------|
A-3---3---3---3---3---3-----| x1
E---------------------------|

Bridge x1

   And there you are on your knees, beggin for forgiveness, beggin for me,
just like I always wanted and I soooo, sorry....
e--3---3---3---3---3---3---3---3---3---3---3---3---3---3---3---3---3---3----|
B-1-1-1-1-1---1-1-1-1-1---1-1-1-1-1---1-1-1-1-1---1-1-1-1-1---1-1-1-1-1-1-1-|
G---------------------------------------------------------------------------|
D-------------3---3---3---------------3---3---3---------------3---3---3---3-|
A-0---0---0---------------3---3---3---------------0---0---0-----------------|
E---------------------------------------------------------------------------|

Chorus

Cause I'm not your princess, this ain't no fairytail, I'm gonna find
someone someday who might actually right. This is a big world and that was
a small town, there in my rear veiw mirror disappearin now, and it's
e--3---3---3---3---3---3---3---3---3---3---3---3---|
B-1-1-1-1-1---1-1-1-1-1---1-1-1-1-1---1-1-1-1-1----|
G--------------------------------------------------|
D-------------3---3---3---------------3---3---3----|
A-3---3---3---------------0---0---0----------------| x2
E--------------------------------------------------|

too late for you and your white horse, to catch me now....
e--3---3---3--3---3------|
B-1-1-1-1-1--1-1-1-1-1---|
G------------------------|
D------------3---3---3---|
A-0---0---0--------------| x1
E------------------------|

Outro
                    Ohhh.....         Try and catch me
e--3---3---3---3---3---3---3---3---3---3---3---3----|
B-1-1-1-1-1---1-1-1-1-1---1-1-1-1-1---1-1-1-1-1-----|
G---------------------------------------------------|
D-------------3---3---3---------------3---3---3-----|
A-3---3---3---------------0---0---0-----------------| x1
E---------------------------------------------------|
                                        (strum once)

  now...ohh                It's too late..to catch me now.
e--3---3---3---3---3---3---3---3---3----------------|
B-1-1-1-1-1---1-1-1-1-1---1-1-1-1-1---1--------1----|
G---------------------------------------------------|
D-------------3---3---3---------------3--------2----|
A-3---3---3---------------0---0---0------------3----| x1
E---------------------------------------------------|
                                         (strum once)
Tap to rate this tab
# A B C D E F G H I J K L M N O P Q R S T U V W X Y Z