Song name
# A B C D E F G H I J K L M N O P Q R S T U V W X Y Z

Taylor Swift - Youre Not Sorry Live tab

I tabbed this performance live cause I really like it
http://www.youtube.com/watch?v=QOXxTTvtt4I&feature=related
This is the intro(first 4 chords) and the verse (the other 4chords)

----------------------------------------------------------------------------
			     YOU'RE NOT SORRY - Taylor Swift
----------------------------------------------------------------------------Tabbed by:me

Tuning:half-step down

e|-0----0----3-----2------------------------------------------------------|
B|------------------------------------------------------3-----------------|
G|---------------------------0--------0---------------2---2---------------|
D|-----------------0-------2---2----2---2-----0----0----------------------|
A|------3-------------------------3---------0---0-------------------------|
E|-0---------3----------0-----------------3-------------------------------|

  Em7 Cadd9  G     D    Em7      Cadd9    G        D

Tap to rate this tab
 
# A B C D E F G H I J K L M N O P Q R S T U V W X Y Z