Song name
# A B C D E F G H I J K L M N O P Q R S T U V W X Y Z

Taylor Swift - Fifteen tab

A beautiful song by a beautiful singer, this tab is 100% correct and should be quite easy.
 
G                    Cadd9                Em7                  Cadd9
e|--3-3-3-3-3-3-3-3-3-3--3-3-3-3-3-3-3-3-3-3--3-3-3-3-3-3-3-3-3-3--3-3-3-3-3-3-3-3-3-3--|
B|--3-3-3-3-3-3-3-3-3-3--3-3-3-3-3-3-3-3-3-3--3-3-3-3-3-3-3-3-3-3--3-3-3-3-3-3-3-3-3-3--|
G|--0-0-0-0-0-0-0-0-0-0--0-0-0-0-0-0-0-0-0-0--0-0-0-0-0-0-0-0-0-0--0-0-0-0-0-0-0-0-0-0--|
D|--0-0-0-0-0-0-0-0-0-0--2-2-2-2-2-2-2-2-2-2--2-2-2-2-2-2-2-2-2-2--2-2-2-2-2-2-2-2-2-2--|
A|--2-2-2-2-2-2-2-2-2-2--3-3-3-3-3-3-3-3-3-3--2-2-2-2-2-2-2-2-2-2--3-3-3-3-3-3-3-3-3-3--|
E|--3-3-3-3-3-3-3-3-3-3-----------------------------------------------------------------|


    G                    Cadd9                Em7                  Cadd9
e|--3-3-3-3-3-3-3-3-3-3--3-3-3-3-3-3-3-3-3-3--3-3-3-3-3-3-3-3-3-3--3-3-3-3-3-3-3-3-3-3--|
B|--3-3-3-3-3-3-3-3-3-3--3-3-3-3-3-3-3-3-3-3--3-3-3-3-3-3-3-3-3-3--3-3-3-3-3-3-3-3-3-3--|
G|--0-0-0-0-0-0-0-0-0-0--0-0-0-0-0-0-0-0-0-0--0-0-0-0-0-0-0-0-0-0--0-0-0-0-0-0-0-0-0-0--|
D|--0-0-0-0-0-0-0-0-0-0--2-2-2-2-2-2-2-2-2-2--2-2-2-2-2-2-2-2-2-2--2-2-2-2-2-2-2-2-2-2--|
A|--2-2-2-2-2-2-2-2-2-2--3-3-3-3-3-3-3-3-3-3--2-2-2-2-2-2-2-2-2-2--3-3-3-3-3-3-3-3-3-3--|
E|--3-3-3-3-3-3-3-3-3-3-----------------------------------------------------------------|
You take a deep breath and you walk through the doors...


    G                    Cadd9                Em7                  Cadd9
e|--3-3-3-3-3-3-3-3-3-3--3-3-3-3-3-3-3-3-3-3--3-3-3-3-3-3-3-3-3-3--3-3-3-3-3-3-3-3-3-3--|
B|--3-3-3-3-3-3-3-3-3-3--3-3-3-3-3-3-3-3-3-3--3-3-3-3-3-3-3-3-3-3--3-3-3-3-3-3-3-3-3-3--|
G|--0-0-0-0-0-0-0-0-0-0--0-0-0-0-0-0-0-0-0-0--0-0-0-0-0-0-0-0-0-0--0-0-0-0-0-0-0-0-0-0--|
D|--0-0-0-0-0-0-0-0-0-0--2-2-2-2-2-2-2-2-2-2--2-2-2-2-2-2-2-2-2-2--2-2-2-2-2-2-2-2-2-2--|
A|--2-2-2-2-2-2-2-2-2-2--3-3-3-3-3-3-3-3-3-3--2-2-2-2-2-2-2-2-2-2--3-3-3-3-3-3-3-3-3-3--|
E|--3-3-3-3-3-3-3-3-3-3-----------------------------------------------------------------|
You say hi to your friends...


    G                    Cadd9                Em7                  Cadd9
e|--3-3-3-3-3-3-3-3-3-3--3-3-3-3-3-3-3-3-3-3--3-3-3-3-3-3-3-3-3-3--3-3-3-3-3-3-3-3-3-3--|
B|--3-3-3-3-3-3-3-3-3-3--3-3-3-3-3-3-3-3-3-3--3-3-3-3-3-3-3-3-3-3--3-3-3-3-3-3-3-3-3-3--|
G|--0-0-0-0-0-0-0-0-0-0--0-0-0-0-0-0-0-0-0-0--0-0-0-0-0-0-0-0-0-0--0-0-0-0-0-0-0-0-0-0--|
D|--0-0-0-0-0-0-0-0-0-0--2-2-2-2-2-2-2-2-2-2--2-2-2-2-2-2-2-2-2-2--2-2-2-2-2-2-2-2-2-2--|
A|--2-2-2-2-2-2-2-2-2-2--3-3-3-3-3-3-3-3-3-3--2-2-2-2-2-2-2-2-2-2--3-3-3-3-3-3-3-3-3-3--|
E|--3-3-3-3-3-3-3-3-3-3-----------------------------------------------------------------|
It's your freshman year and your gonn' be here...


    G                    Cadd9                Em7                  Cadd9
e|--3-3-3-3-3-3-3-3-3-3--3-3-3-3-3-3-3-3-3-3--3-3-3-3-3-3-3-3-3-3--3-3-3-3-3-3-3-3-3-3--|
B|--3-3-3-3-3-3-3-3-3-3--3-3-3-3-3-3-3-3-3-3--3-3-3-3-3-3-3-3-3-3--3-3-3-3-3-3-3-3-3-3--|
G|--0-0-0-0-0-0-0-0-0-0--0-0-0-0-0-0-0-0-0-0--0-0-0-0-0-0-0-0-0-0--0-0-0-0-0-0-0-0-0-0--|
D|--0-0-0-0-0-0-0-0-0-0--2-2-2-2-2-2-2-2-2-2--2-2-2-2-2-2-2-2-2-2--2-2-2-2-2-2-2-2-2-2--|
A|--2-2-2-2-2-2-2-2-2-2--3-3-3-3-3-3-3-3-3-3--2-2-2-2-2-2-2-2-2-2--3-3-3-3-3-3-3-3-3-3--|
E|--3-3-3-3-3-3-3-3-3-3-----------------------------------------------------------------|
Hopin' one of those senior boys will wink at you...


    G                Em7              D                Cadd9            
e|--3-3-3-3-3-3-3-3--3-3-3-3-3-3-3-3--2-2-2-2-2-2-2-2--3-3-3-3-3-3-3-3--|
B|--3-3-3-3-3-3-3-3--3-3-3-3-3-3-3-3--3-3-3-3-3-3-3-3--3-3-3-3-3-3-3-3--|
G|--0-0-0-0-0-0-0-0--0-0-0-0-0-0-0-0--2-2-2-2-2-2-2-2--0-0-0-0-0-0-0-0--|
D|--0-0-0-0-0-0-0-0--2-2-2-2-2-2-2-2--0-0-0-0-0-0-0-0--2-2-2-2-2-2-2-2--|
A|--2-2-2-2-2-2-2-2--2-2-2-2-2-2-2-2-------------------3-3-3-3-3-3-3-3--|
E|--3-3-3-3-3-3-3-3-----------------------------------------------------|
cause when your fifteen, somebody tells you they love you...

   G                 D                Em7              Cadd9            
e|--3-3-3-3-3-3-3-3--2-2-2-2-2-2-2-2--3-3-3-3-3-3-3-3--3-3-3-3-3-3-3-3--|
B|--3-3-3-3-3-3-3-3--3-3-3-3-3-3-3-3--3-3-3-3-3-3-3-3--3-3-3-3-3-3-3-3--|
G|--0-0-0-0-0-0-0-0--2-2-2-2-2-2-2-2--0-0-0-0-0-0-0-0--0-0-0-0-0-0-0-0--|
D|--0-0-0-0-0-0-0-0--0-0-0-0-0-0-0-0--2-2-2-2-2-2-2-2--2-2-2-2-2-2-2-2--|
A|--2-2-2-2-2-2-2-2-------------------2-2-2-2-2-2-2-2--3-3-3-3-3-3-3-3--|
E|--3-3-3-3-3-3-3-3-----------------------------------------------------|
and when your fifteen feeling like there's nothing to figure out
   
    Em7              D                G       Em7     Cadd9            D
e|--3-3-3-3-3-3-3-3--2-2-2-2-2-2-2-2--3-3-3-3-3-3-3-3-3-3-3-3-3-3-3-3--2---------------|
B|--3-3-3-3-3-3-3-3--3-3-3-3-3-3-3-3--3-3-3-3-3-3-3-3-3-3-3-3-3-3-3-3--3---------------|
G|--0-0-0-0-0-0-0-0--2-2-2-2-2-2-2-2--0-0-0-0-0-0-0-0-0-0-0-0-0-0-0-0--2---------------|
D|--2-2-2-2-2-2-2-2--0-0-0-0-0-0-0-0--0-0-0-0-2-2-2-2-2-2-2-2-2-2-2-2--0---------------|
A|--2-2-2-2-2-2-2-2-------------------2-2-2-2-2-2-2-2-3-3-3-3-3-3-3-3------------------|
E|------------------------------------3-3-3-3------------------------------------------|
Count to ten, take it in, this is life...                                ...fifteen

Repeat the Verse and Chorus:

Solo:

e|-----------------------|
B|-----------------------|
G|--11-12/16----11-12/19-|
D|-----------------------|
A|-----------------------|
E|-----------------------|



Rhythm Guitar under Solo:

   G                Em7              G                Cadd9    D        
e|--3-3-3-3-3-3-3-3--3-3-3-3-3-3-3-3--3-3-3-3-3-3-3-3--3-3-3-3--2-2-2-2--|
B|--3-3-3-3-3-3-3-3--3-3-3-3-3-3-3-3--3-3-3-3-3-3-3-3--3-3-3-3--3-3-3-3--|
G|--0-0-0-0-0-0-0-0--0-0-0-0-0-0-0-0--0-0-0-0-0-0-0-0--0-0-0-0--2-2-2-2--|
D|--0-0-0-0-0-0-0-0--2-2-2-2-2-2-2-2--0-0-0-0-0-0-0-0--2-2-2-2--0-0-0-0--|
A|--2-2-2-2-2-2-2-2--2-2-2-2-2-2-2-2--2-2-2-2-2-2-2-2--3-3-3-3-----------|
E|--3-3-3-3-3-3-3-3-------------------3-3-3-3-3-3-3-3--------------------|

Bridge:

    Cadd9            Em7              D                G      D      Cadd9
e|--3---3---3---3----3---3---3---3----2---2---2---2----3------2------3------3------2----|
B|--3---3---3---3----3---3---3---3----3---3---3---3----3------3------3------3------3----|
G|--0---0---0---0----0---0---0---0----2---2---2---2----0------2------0------0------2----|
D|--2---2---2---2----2---2---2---2----0---0---0---0----0------0------2------2------0----|
A|--3---3---3---3----2---2---2---2---------------------2-------------3------2-----------|
E|-----------------------------------------------------3--------------------------------|
When all you wanted was to be wanted...

Repeat the Verse and Chorus:

Play the Verse riff through to the end, have fun!
Tap to rate this tab
# A B C D E F G H I J K L M N O P Q R S T U V W X Y Z