Song name
# A B C D E F G H I J K L M N O P Q R S T U V W X Y Z

Taylor Swift - The Way I Loved You tab

  F                C                Gm               A#m       
e|------------------------------------3-3-3-3-3-3-3-3------------------|
B|-------------------5-5-5-5-5-5-5-5--3-3-3-3-3-3-3-3--2-2-2-2-2-2-2-2-|
G|--2-2-2-2-2-2-2-2--5-5-5-5-5-5-5-5--0-0-0-0-0-0-0-0--3-3-3-3-3-3-3-3-|
D|--3-3-3-3-3-3-3-3--5-5-5-5-5-5-5-5--0-0-0-0-0-0-0-0--3-3-3-3-3-3-3-3-|
A|--3-3-3-3-3-3-3-3--3-3-3-3-3-3-3-3--1-1-1-1-1-1-1-1--1-1-1-1-1-1-1-1-|
E|--1-1-1-1-1-1-1-1-------------------3-3-3-3-3-3-3-3------------------|


Lead Guitar:

e|----------------------------------------------------------------------------------|
B|----------------------------------------------------------------------------------|
G|-----10---------9----10----9----10----10----10----10----10----9----9----10----12--|
D|--10--------------10----10---10----10----10----10----10----10---10---10----10-----|
A|----------------------------------------------------------------------------------|
E|----------------------------------------------------------------------------------|

Rhythm Guitar:

    F                C                G                A#      C
e|-------------------0-0-0-0-0-0-0-0-----------------------------------|
B|-------------------1-1-1-1-1-1-1-1-------------------3-3-3-3-5-5-5-5-|
G|--2-2-2-2-2-2-2-2--0-0-0-0-0-0-0-0--4-4-4-4-4-4-4-4--3-3-3-3-5-5-5-5-|
D|--3-3-3-3-3-3-3-3--2-2-2-2-2-2-2-2--5-5-5-5-5-5-5-5--3-3-3-3-5-5-5-5-|
A|--3-3-3-3-3-3-3-3--3-3-3-3-3-3-3-3--5-5-5-5-5-5-5-5--1-1-1-1-3-3-3-3-|
E|--1-1-1-1-1-1-1-1-------------------3-3-3-3-3-3-3-3------------------|

Verse:

    F                C                G                A#      
e|---------------------------------------------------------------------| x2
B|-------------------5-5-5-5-5-5-5-5-------------------3-3-3-3---------|
G|--2-2-2-2-2-2-2-2--5-5-5-5-5-5-5-5--4-4-4-4-4-4-4-4--3-3-3-3---------|
D|--3-3-3-3-3-3-3-3--5-5-5-5-5-5-5-5--5-5-5-5-5-5-5-5--3-3-3-3---------|
A|--3-3-3-3-3-3-3-3--3-3-3-3-3-3-3-3--5-5-5-5-5-5-5-5--1-1-1-1-1-0-----|
E|--1-1-1-1-1-1-1-1-------------------3-3-3-3-3-3-3-3--------------3-1-|
    He is Sensible and so incredible...

    F                C                Gm               A#m       
e|---------------------------------------------------------------------|
B|-------------------5-5-5-5-5-5-5-5-------------------2-2-2-2-2-2-2-2-|
G|--2-2-2-2-2-2-2-2--5-5-5-5-5-5-5-5--4-4-4-4-4-4-4-4--3-3-3-3-3-3-3-3-|
D|--3-3-3-3-3-3-3-3--5-5-5-5-5-5-5-5--5-5-5-5-5-5-5-5--3-3-3-3-3-3-3-3-|
A|--3-3-3-3-3-3-3-3--3-3-3-3-3-3-3-3--5-5-5-5-5-5-5-5--1-1-1-1-1-1-1-1-|
E|--1-1-1-1-1-1-1-1-------------------3-3-3-3-3-3-3-3------------------|
    He opens up my door and i get into his car...

Chorus:
  
    F                C                Gm               A#m     C     
e|-------------------0-0-0-0-0-0-0-0--3-3-3-3-3-3-3-3----------0-0-0-0-|
B|-------------------1-1-1-1-1-1-1-1--3-3-3-3-3-3-3-3--2-2-2-2-1-1-1-1-|
G|--2-2-2-2-2-2-2-2--0-0-0-0-0-0-0-0--0-0-0-0-0-0-0-0--3-3-3-3-0-0-0-0-|
D|--3-3-3-3-3-3-3-3--2-2-2-2-2-2-2-2--0-0-0-0-0-0-0-0--3-3-3-3-2-2-2-2-|
A|--3-3-3-3-3-3-3-3--3-3-3-3-3-3-3-3--1-1-1-1-1-1-1-1--1-1-1-1-3-3-3-3-|
E|--1-1-1-1-1-1-1-1-------------------3-3-3-3-3-3-3-3------------------|
But I miss screamin' and fightin' and kissin' in the rain...

    F                C                Gm               A#m              
e|-------------------0-0-0-0-0-0-0-0--3-3-3-3-3-3-3-3------------------|
B|-------------------1-1-1-1-1-1-1-1--3-3-3-3-3-3-3-3--1-1-1-1-1-1-1-1-|
G|--2-2-2-2-2-2-2-2--0-0-0-0-0-0-0-0--0-0-0-0-0-0-0-0--3-3-3-3-3-3-3-3-|
D|--3-3-3-3-3-3-3-3--2-2-2-2-2-2-2-2--0-0-0-0-0-0-0-0--3-3-3-3-3-3-3-3-|
A|--3-3-3-3-3-3-3-3--3-3-3-3-3-3-3-3--1-1-1-1-1-1-1-1--1-1-1-1-1-1-1-1-|
E|--1-1-1-1-1-1-1-1-------------------3-3-3-3-3-3-3-3------------------|
Breakin' down and comin' undone... 

e|-----------------------------------------------------------------------------------------|
B|-----------------------------------------------------------------------------------------|
G|-----10---------9----10----9----10----------10-10----10----10----12-12-12-12-10-10-10-9--|
D|--10--------------10----10---10----10-10h12-------12----12----12-10-10-10-10-8--8--8--8--|
A|-----------------------------------------------------------------------------------------|
E|-----------------------------------------------------------------------------------------|

Repeat the Verse and Chorus:

Solo:

e|-------------------------------------------------------------------------|
B|-------------------------------10h11p10----------------------------------|
G|-------------7-10--10-10-12-10--------------------7-10--10-10-12/14-12---|
D|--7-8-10--10----------------------------7-8-1--10------------------------|
A|-------------------------------------------------------------------------|
E|-------------------------------------------------------------------------|

e|------------------------------------------8------------------------------|
B|--13b-13-10--------11-10---------------10---10-8-----6---6---------------|
G|------------12b-12b------12-10-------------------10----7----7------------|
D|-------------------------------12-10-------------10-----------5-3-5-3----|
A|-------------------------------------------------------------------------|
E|-------------------------------------------------------------------------|

Bridge:
    G                A#               F                C
e|-------------------------------------------------------------------------|
B|-----------------------------------------------------5---5---5---5-------|
G|--4---4---4---4----7---7---7---7----2---2---2---2----5---5---5---5-------|
D|--5---5---5---5----8---8---8---8----3---3---3---3----5---5---5---5-------|
A|--5---5---5---5----8---8---8---8----3---3---3---3----3---3---3---3-------|
E|--3---3---3---3----6---6---6---6----1---1---1---1------------------------|
    He can't see the smile I'm faking...

    G                A#               F                C               A#
e|-------------------------------------------------------------------------|
B|-----------------------------------------------------5-5-5-5-5-5-5-5-3---|
G|--4---4---4---4----7---7---7---7----2---2---2---2----5-5-5-5-5-5-5-5-3---|
D|--5---5---5---5----8---8---8---8----3---3---3---3----5-5-5-5-5-5-5-5-3---|
A|--5---5---5---5----8---8---8---8----3---3---3---3----3-3-3-3-3-3-3-3-1---|
E|--3---3---3---3----6---6---6---6----1---1---1---1------------------------|
and you were wild and crazy...

e|-------------------------------------------------------------------------|
B|------------18-----------------------------------------------------------|
G|---------------17--------------------------9-----------7-----------------|
D|---------15-------------------------------------10p7-10---10p7-----------|
A|-------------------------------------------------------------------------|
E|-------------------------------------------------------------------------|
But I miss screamin' and fightin'...

   F                C                Gm               A#m      C        
e|-------------------0-0-0-0-0-0-0-0--3-3-3-3-3-3-3-3----------0-0-0-0-|
B|-------------------1-1-1-1-1-1-1-1--3-3-3-3-3-3-3-3--1-1-1-1-1-1-1-1-|
G|--2-2-2-2-2-2-2-2--0-0-0-0-0-0-0-0--0-0-0-0-0-0-0-0--3-3-3-3-0-0-0-0-|
D|--3-3-3-3-3-3-3-3--2-2-2-2-2-2-2-2--0-0-0-0-0-0-0-0--3-3-3-3-2-2-2-2-|
A|--3-3-3-3-3-3-3-3--3-3-3-3-3-3-3-3--1-1-1-1-1-1-1-1--1-1-1-1-3-3-3-3-|
E|--1-1-1-1-1-1-1-1-------------------3-3-3-3-3-3-3-3------------------|
Breakin' down and comin' undone... 

e|------------------------------------------------------------------------------------------------|
B|------------------------------------------------------------------------------------------------|
G|----10---------9----10----9----10----------10-10h12p10-10h12p10-10h12p10-10-10-10-10-12-12-12-12|
D|-10--------------10----10---10----10-10h12-------------------------------8--8--8--8--10-10-10-10|
A|------------------------------------------------------------------------------------------------|
E|------------------------------------------------------------------------------------------------|


e|------------------------------------------------------------------------------------|
B|------------------------------------------------------------------------------------|
G|-10----10----10----10----9----10----9-----10----------10-------10-------10-------10-|
D|----10----10---10----10----10----10----10----10-10h12----10h12----10h12----10h12----|
A|------------------------------------------------------------------------------------|
E|------------------------------------------------------------------------------------|

    A#               A#m       F
e|-----------------------------1---|
B|--3----------------2---------1---|
G|--3----------------3---------2---|
D|--3----------------3---------3---|
A|--1----------------1---------3---|
E|-----------------------------1---|
And that's the way I love you

Good luck! :)
Tap to rate this tab
# A B C D E F G H I J K L M N O P Q R S T U V W X Y Z