Song name
# A B C D E F G H I J K L M N O P Q R S T U V W X Y Z

Taylor Swift - Outside tab

Standard Tuning, Capo 3


e|------------------------------------------------------|
B|--2/4-4----------2-2-------------------5-5-5-5-4-4~---|
G|--------4-4-3--4-----3-3-1~---1/3-4-4-----------------|
D|------------------------------------------------------|
A|------------------------------------------------------|
E|------------------------------------------------------|


e|---------------------------------------|
B|--2/4-4----------2-2-------------------|
G|--------4-4-3--4-----3-3-1~---1/3-4-4~-|
D|---------------------------------------|
A|---------------------------------------|
E|---------------------------------------|
Tap to rate this tab
 
# A B C D E F G H I J K L M N O P Q R S T U V W X Y Z