Taylor Swift - White Horse tab

	Hi guys! This is my first post, and I started learning guitar just last year so..
consider some mistakes, especially the outro part cuz I know that I screwed it up. I hope
tab can be your inspiration, and one of the factors to love Taylor more. You don’t 
have to rate this tab, unless if you think this deserves it. E-mail me if you have time,
more power to Taylor Swift! –yuji-
e-mail:y_squared812@yahoo.com

Intro
|----------3---------------3------------3------------3--------------|
|-1-----1----1----1-----1----1----1---1---1----1--1----1------------|
|-0--x--0------0-----x---------0----x--------------------0----------|
|----x------------3--x--3-----------x-------2--3--3-----------------| X 2
|-3-----3-------------------------0---0-----------------------------|
|-------------------------------------------------------------------|

Verse
|------0------0-------0------0----------0---------------3-----------|
|-1------3--1---3---1---3--1---3---1--3---3--1----1---1---1---------|
|-0--0-----------------------------------------0----x-------0-------|
|-----------------3-----3-------------------------3-x-3-------------|
|-3------3-----------------------0------0---------------------------|
|-------------------------------------------------------------------|

|------0------0-------0------0----0---0-----------------3-----------|
|-1------3--1---3---1---3--1----3---3---3---1----1---1----1---------|
|-0--0----------------------------------------0----x----------------|
|-----------------3-----3------------------------3-x-3--------------|
|-3------3----------------------0-----0-----------------------------|
|-------------------------------------------------------------------|

|-3--------------3------------0-------0-------0------3--------------|
|-1---3---1---1--1----3---1-----1h3-----1h3-----1h3--3--------------|
|---0-------0----0--0---0---0-------0-------0--------0--------------|
|-------3--------3-----------------------------------0--------------|
|-0--------------------------------------------------2--------------|
|-------------------------------------------------------------------|

Chorus
|---------0h1---0-----------1--0--0-----------0h1---0---1--0-----1--0--0---1--0-------|
|-1--3--1-----------1--3--1-----------1--3--1---------1------1-----------1-------3--1-|
|-------------0-----------------------------------2-----2------2----------------------|
|-------------------------------------------------3-----------------------------------|
|-------------3---3------------0----0-------------------------------------------------|
|-------------------------------------------------------------------3------3----------|

|-1--0--0-----------1/3---0------------1---0---1--0-----------------------------------|
|-----------1--3--1------------1--3--1-------1------3--1--3--1—3/5/3------------------|
|---------0-------------0---0------------2-----2-------------0------------------------|
|----------------------------------------3---------------------------------0----------|
|-3-------3-------------0---0---------------------3---------------------2-------------|
|--------------------------------------------------------------------3--------3-------|

|---0-------0-------0-----------------|-------3------------3---------|
|-1---3---1---3---1---3---1------1--1-|-1---1---1----1---1---1-------|
|-------------------------0-x--2------|-0-x-0-----0--0-x-0-----0-----|
|---------------------------x---------|---x------------x-------------|
|-------0-------2-------3-------------|-3---3--------3---3-----------|
|-------------------------------------|------------------------------|

2nd Verse
|-0-----0---------0-------------0--------------0---0---------------3------------------|
|-1-------1h3--1----1--3---1--3----3---1--1--3---3---3--1----1---1---1----------------|
|-0--0---------0---------------------0--------------------0----x-------0--------------|
|-2----------------------3------3----------------------------3-x-3--------------------|
|-3------------3-----------------------------0-----0----------------------------------|
|-------------------------------------------------------------------------------------|

|-0----0----------0--------------0---0---0---0---0--------------3---------------------|
|-1------1--3---1---1h3--1--3--1-------3---3---3---3--1---1---1---1-------------------|
|-0--0--------0----------2-------2----------------------0---x-------------------------|
|-2--------------------------------0-------0-----0--------3-x-3-----------------------|
|-3-----------------------------------------------------------------------------------|
|-------------------------------------------------------------------------------------|

|-------3----------------3-----------0----------------0---0h1-0-------|
|-1--1--1---3--1--1---1--1---3---1-----1--3-------3-------------<12>--|
|---------0---------2------0---0---0----------0-x---0---0-------<12>--|
|-------0----------------3------------------0---x---------------------|
|-----------------------------------------2---------------------------|
|---------------------------------------------------------------------|

Chorus
|---------0h1---0-----------1--0--0-----------0h1---0---1--0-----1--0--0---1--0-------|
|-1--3--1-----------1--3--1-----------1--3--1---------1------1-----------1-------3--1-|
|-------------0-----------------------------------2-----2------2----------------------|
|-------------------------------------------------3-----------------------------------|
|-------------3---3------------0----0-------------------------------------------------|
|-------------------------------------------------------------------3------3----------|

|-1--0--0-----------1/3---0------------1---0---1--0-----------------------------------|
|-----------1--3--1------------1--3--1-------1------3--1--3--1—3/5/3------------------|
|---------0-------------0---0------------2-----2-------------0------------------------|
|----------------------------------------3---------------------------------0----------|
|-3-------3-------------0---0---------------------3---------------------2-------------|
|--------------------------------------------------------------------3--------3-------|

|---0-------0-------0-----------------|
|-1---3---1---3---1---3---1------1--1-|
|-------------------------0-x--2------|
|---------------------------x---------|
|-------0-------2-------3-------------|
|-------------------------------------|
Bridge
|-----1---0----------------1---0---------------1---0----------------------------------|
|-----1---1----1-----------1---1----1----------1---1----1--3--------3--------3--------|
|---0---0---0--2--0--2-------0---0--2--0--2------0---0--2--0--------0--------0--------|
|-2------------2--------------------2-------------------2--0--------0--------0--------|
|--------------------3--0-----------------3--0-------------2--2--2--2--2--2--2--2-----|
|----------------------------------------------------------3--3--3--3--3--3--3--3-----|

|--------0------------------3----0--0--3--3--0--3--0---5--3--5--0-----|
|---3--3---3--1--1------------3--1-----3--------1------3--------1-----|
|-0----2---------0--2--2--0------2-----0--------0----0----------0--0--|
|-0--------------------------------------------------0----------------|
|----------------------3----------------------------------------------|
|---------------------------------------------------------------------|

|------0-----------------------0--0-------------|
|-3--3---3--1--3--1--3--1--3/5------3--------3--|
|----0---------------------3/5------3----3------|
|-----------------3-----------------3------3----|
|-----------------------------------1--1--------|
|-----------------------------------------------|

Chorus
|---------1---0-----------1--0--0------------1---0---1--0-----0h1--1--1--3--0---------|
|-1--3--1---------1--3--1-----------1--3--1--------1----1--3p1----------------3-------|
|---------------0-----------------0------------2--------------------------------0-----|
|----------------------------------------------3--------------------------------------|
|-----------3----------------0--------------------------------------------------------|
|------------------------------------------------------------------3--3---------------|

|--------1--0-----------1/3---0-----------1---0---1--0----------------------------------|
|-1h3--1--------1--3--1-----------1--3--1-------1------3--1--3—1--3/5--3----------------|
|-------------0-------------0---0-----------2--------0----------------------------------|
|-------------------------------------------3--------------------------------0----------|
|--------3------------------0----------------------------------0-----------2------------|
|------------------------------------------------------------------------3-----3--------|

|---0-------0-------0-----------0-------0-------0--------|---------|
|-1---3---1---3---1---3---1---1---3---1---3---1---3---1--|---1--1--|
|-------------------------0-x----------------------------|-2-------|
|---------------------------x----------------------------|---------|
|-------0-------2-------3-----------0-------2-------3----|---------|
|--------------------------------------------------------|---------|

Outro
|-0---0--0--0--1---1--0---0-----0---0-----------0---0---0---0-------------------------|
|-1---1--1--1--1---1----3-----3---3---3--1--------3---3---3---3--1-----1h3--1---------|
|-0-x-0--0--0--2-x-2--------0--------------0--2----------------------0----------------|
|-2-x-2--------3-x-3----------------0-----------------------0------0------------------|
|------------------3--------2---3-----------------------3-----------------------------|
|------------------1------------------------------------------------------------------|

|----------------1--0------0--------1------------3-----|
|--------0--1--3-------------1------1-------0h1--1-----|
|---0--2--------------0--0-------2--2--2--2------0-----|
|------0----------------------------3------------2-----|
|-3---------0----3-------------2----3------------3--3--|
|-----------------------------------1------------------|
Tap to rate this tab
 
# A B C D E F G H I J K L M N O P Q R S T U V W X Y Z