Song name
# A B C D E F G H I J K L M N O P Q R S T U V W X Y Z

Taylor Swift - Mine tab

-----------------------------------------------------------------------------
			     Mine (Intro) - Taylor Swift
-----------------------------------------------------------------------------

This is the part the lead guitar plays over the chords

Tuning: Standard

e|---12-10-10-10-----------------12-10-10--------------------------|
B|-8--------------10h12-10p8--8------------10h12-10p8--------------|
G|-----------------------------------------------------------------|
D|-----------------------------------------------------------------|
A|-----------------------------------------------------------------|
E|-----------------------------------------------------------------|

e|----12-10-10-10----------------12-10-12-10-----------------------|
B|-8--------------10h12-10p8--8------------------------------------|
G|-----------------------------------------------------------------|
D|-----------------------------------------------------------------|
A|-----------------------------------------------------------------|
E|-----------------------------------------------------------------|

Tap to rate this tab
 
# A B C D E F G H I J K L M N O P Q R S T U V W X Y Z