Song name
# A B C D E F G H I J K L M N O P Q R S T U V W X Y Z

Taylor Swift - Change tab

Hi guys! obviously this is played using an electric guitar, but this tab is relative to
capo, which means it's for an acoustic guitar. for using electric, just play one note
it sounds good to me, but if it does't satisfy you, i'll be glad if you could make a 
"Change" based on my tab.

 capo 1st, relative to capo
|-4--4/5--4--4--4/5--4--4--4/5--4--4---------4--4/5--4--4--4/5--4--4--4/5--4--|
|------------------------------------4--4--5----------------------------------|
|-----------------------------------------------------------------------------|
|-----------------------------------------------------------------------------|
|-----------------------------------------------------------------------------|
|-----------------------------------------------------------------------------|

|--4/6--4--4--4--4/5--4--4--4/5--4--4--4/5--4--4---------0--2--0--0--2--0-----|
|------------------------------------------------4--4--5----------------------|
|-----------------------------------------------------------------------------|
|-----------------------------------------------------------------------------|
|-----------------------------------------------------------------------------|
|-----------------------------------------------------------------------------|

|-0--2--0--5--5--4---|
|--------------------|
|--------------------|
|--------------------|
|--------------------|
|--------------------|
Tap to rate this tab
 
# A B C D E F G H I J K L M N O P Q R S T U V W X Y Z