Taylor Swift - Speak Now tab

Solo after the first and second choruses

STANDARD TUNING

After first chorus:
e|---------------------------------------------------------|
B|---------------------------------------------------------|
G|--------------/16-14~--14-16-16s17-16-12-----------------|
D|---9-10-10s12----------------------------12-109109109~---|
A|---------------------------------------------------------|
E|---------------------------------------------------------|

After second chorus: 2X
e|----------------------------------------------------------|
B|----------------------------------------------------------|
G|--------------/16-14~--14-16-16s17-16-12----/17-16-12-----|
D|---9-10-10s12----------------------------12-----------12--|
A|----------------------------------------------------------|
E|----------------------------------------------------------|
Tap to rate this tab
 
# A B C D E F G H I J K L M N O P Q R S T U V W X Y Z