Taylor Swift - Sparks Fly tab

-------------------------------------------------------------------------------
			     SONG NAME - Band Name
-------------------------------------------------------------------------------
This is the intro for the lead guitar on Sparks Fly. This riff is also played after some 
If you listen to the song, you'll know when to throw this in.

CAPO on 5, tab is relative to the capo

e|-------------------------------------------------------------------|
B|-1-1---1-1h3-1--1---1-1h3-1--1---1-1h3-0-1-3-3s5-------------------|
G|-----2------------2------------2-----------------------------------|
D|-------------------------------------------------------------------|
A|-------------------------------------------------------------------|
E|-------------------------------------------------------------------|

e|-------------------------------------------------------------------|
B|-1-1---1-1h3-1--1---1-1h3-1--1---1-1h3-0-1-3-3s5-3-1---------------|
G|-----2------------2------------2---------------------2-------------|
D|-------------------------------------------------------------------|
A|-------------------------------------------------------------------|
E|-------------------------------------------------------------------|
Tap to rate this tab
 
# A B C D E F G H I J K L M N O P Q R S T U V W X Y Z