Taylor Swift - Never Grow Up tab

-----------------------------------------------------------------------------
		           Never Grow Up - Taylor Swift
----------------------------------------------------------------------------
Tabbed by: jbroom
Email: shatterpoint71@yahoo.com

Hey guys. This tab isn't perfect, but it is pretty darn close.
You can figure out the timing and order. I haven't taken the
time to write out the chords, but you can figure them out easy.

Tuning: Standard (Capo 2)

Intro/Verse
e|------------------3--------------------------3-----------------------------|
B|------1------------------------1----------------------3--------3-----------|
G|----0----------0-------------0------------0--------0--------0--------------|
D|-------------------------------------------------3--------3----------------|
A|-3----------2------------0-------------------------------------------------|
E|--------------------------------------3------------------------------------|

e|----------3----------------------------------3--------------------------3--|
B|----3-----------3p1----------------1-----------------------1---------------|
G|-0-----0-----0-----------------0----------0-------------0------------0-----|
D|---------------------------------------------------------------------------|
A|------------------------3--------------2-------------0---------------------|
E|-----------------------------------------------------------------3---------|

e|-----------------------------3----------------------------------------------|
B|-------1---------1---------------------1------------------------------------|
G|----0---------0-----------0---------0---------------------------------------|
D|-3---------3-----------3---------3------------------------------------------|
A|----------------------------------------------------------------------------|
E|----------------------------------------------------------------------------|

Pre-Chorus
e|---------------------------------------------------------------------------|
B|-------1---------1---------1---------1---------1---------1---------1-------|
G|----0---------0---------0---------0---------0---------0---------0----------|
D|-3---------3---------3---------3-------------------------------------------|
A|-----------------------------------------0---------0---------0-------------|
E|---------------------------------------------------------------------------|

e|-----------------------------------------------------------5-----5/7--------|
B|-------1--------1---------1---------1---------1---------3-------------------|
G|----0--------0---------0---------0---------0---------0----------------------|
D|----------3---------3---------3---------3---------5-----------5-------------|
A|-0--------------------------------------------------------------------------|
E|----------------------------------------------------------------------------|

Chorus (same as the verse)
e|------------------3--------------------------3-----------------------------|
B|------1------------------------1----------------------3--------3-----------|
G|----0----------0-------------0------------0--------0--------0--------------|
D|-------------------------------------------------3--------3----------------|
A|-3----------2------------0-------------------------------------------------|
E|--------------------------------------3------------------------------------|

e|----------3----------------------------------3--------------------------3--|
B|----3-----------3p1----------------1-----------------------1---------------|
G|-0-----0-----0-----------------0----------0-------------0------------0-----|
D|---------------------------------------------------------------------------|
A|------------------------3--------------2-------------0---------------------|
E|-----------------------------------------------------------------3---------|

e|-----------------------------3----------------------------------------------|
B|-------1---------1---------------------1------------------------------------|
G|----0---------0-----------0---------0---------------------------------------|
D|-3---------3-----------3---------3------------------------------------------|
A|----------------------------------------------------------------------------|
E|----------------------------------------------------------------------------|

e|---------------------------------------------------------------------------|
B|-------1---------1---------1---------1---------1---------1---------1-------|
G|----0---------0---------0---------0---------0---------0---------0----------|
D|-3---------3---------3---------3-------------------------------------------|
A|-----------------------------------------0---------0---------0-------------|
E|---------------------------------------------------------------------------|

e|-----------------------------------------------------------5-----5/7--------|
B|-------1--------1---------1---------1---------1---------3-------------------|
G|----0--------0---------0---------0---------0---------0----------------------|
D|----------3---------3---------3---------3---------5-----------5-------------|
A|-0--------------------------------------------------------------------------|
E|----------------------------------------------------------------------------|
************************************

| /   slide up
| \   slide down
| h   hammer-on
| p   pull-off
| ~   vibrato
| +   harmonic
| x   Mute note
| b   Bend
| pb  Pre-bend
| br  Bend release
| pbr Pre-bend release
| brb Bend release bend

************************************
Tap to rate this tab
 
# A B C D E F G H I J K L M N O P Q R S T U V W X Y Z