Guitaretab - guitar tabs
Song name
# A B C D E F G H I J K L M N O P Q R S T U V W X Y Z

Taylor Swift - Never Grow Up tab

This is my first tab so bear with me. This is a song off of Taylor Swift's new album, 
Now. Great song. If you see anything wrong let me know. Have fun with it! :)

Capo the 7th fret. Everything relative to the capo.

Intro/interlude:
e|------------------------------------------------------------------|
B|-------------3-----------3--------3--------3-------3--------------|
G|-----0-----0-------0---2-------0---------0-------2-------2p0------|
D|---0-------------2---0------------------------0-------0-----------|
A|----------------------------3---------3---------------------------|
E|-3------2------0--------------------------------------------------|

e|---------------------------------------------------3--------------------------|
B|-------------3-----------3--------3-------------------------------------------|
G|-----0-----0-------0---2-------0---------0------------------0-----------------|
D|---0-------------2---0------------------------------------2-----------2-------|
A|----------------------------3---------3----------------3----------3-----------|
E|-3------2------0--------------------------------------------------------------|

Verse x2
e|--------------------------------------------------------------------|
B|-------------3-----------3--------3--------3-------3---------3------|
G|-----0-----0-------0---2-------0---------0-------2-------2----------|
D|---0-------------2---0------------------------0-------0-------------|
A|----------------------------3---------3-----------------------------|
E|-3------2------0----------------------------------------------------|

Your little hands wrapped around my finger
And it's so quiet in the world tonight
Your little eyelids flutter cause you're dreaming
So I tuck you in and turn on your favorite nightlight

Bridge:

e|----------------------------------------------------------------------------------0-0h2--|
B|--------------3-----------------------3-----------------3--------------------------------|
G|-------0-----------0----0------0-----------0------0--------0---0h2--------2--------------|
D|----2------2----2----2-------2----2----2-------2---2-----2-----0---------0---------------|
A |3-------3------------------------------------3-------------------------0----------------|
E|----------------------------0------------------------------------------------------------|

To you, everything's funny
You got nothing to regret
I'd give all I have honey
If you could stay like that

Chorus:
e|-----------------------------------------------------------------------|
B|-------------3---------------------3-----3--------3--------------------|
G|-----0-----0-------0--------0-----0-----0--------2-------2p0-----------|
D|---0-------------2--------2--------------------0--------0--------------|
A|---------------------------------3------3------------------------------|
E|-3------2------0------0------------------------------------------------|
Oh darling don't you ever grow up, don't you ever grow up. Just stay this little


e|------------------------------------------------------------0h2----------|
B|-------------3----------------------3-----3--------3---------------------|
G|-----0-----0-------0--------0-----0-----0--------2-----------------------|
D|---0-------------2--------2--------------------0-------------------------|
A|---------------------------------3------3--------------------------------|
E|-3------2------0------0--------------------------------------------------|
Oh darling don't you ever grow up, don't you ever grow up
It could stay this simple

[ Tab from: http://www.guitaretab.com/t/taylor-swift/252593.html ]
e|------------------------------------------------------------------------------------0-0h2--|
B|----------------3-----------------------3----------------3---------------------------------|
G|---------0-----------0----0------0----------0-------0--------0---0h2-------2---------------|
D|------2------2----2----2-------2----2----2-------2---2----2-----0--------0-----------------|
A |--3-------3------------------------------------3-----------------------0------------------|
E|------------------------------0------------------------------------------------------------|
I won't let nobody hurt you. Wont let no one break your heart. No one will desert you. 
try to never grow up.

Intro/interlude

Verse 2:
You're in the car on the way to the movies
And you're mortified your mama's dropping you off(pause)
At 14, there's just so much you can't do
And you can't wait to move out
Someday and call your own shots

Bridge 2:
But don't make her drop you off around the block
Remember she's getting older too
And don't lose the way that you dance around in your P.J.s getting ready for school

Chorus:
Oh darling don't you ever grow up, don't you ever grow up
Just stay this little
Oh darling don't you ever grow up, don't you ever grow up
It could stay this simple
No one's ever burned
Nothing's ever left you scarred
Even though you want to, just try to never grow up

Interlude:
e|------------------------------------------------2-2-2-2-2-2-2---|
B|-------------3-----------3--------3------------ 3-3-3-3-3-3-3---|
G|-----0-----0-------0---2-------0---------0------0h2-2-2-2-2-2p0-|
D|---0-------------2---0--------------------------0-0-0-0-0-0-0---|
A|----------------------------3---------3---------0-0-0-0-0-0-0---|
E|-3------2------0--------------------------------0-0-0-0-0-0-0---|

(Cadd9)Take pictures in your (G)mind of your childhood (D)room
(Cadd9)Memorize what it (G)sounded like whet your (Dsus4)dad gets home(Dsus4)
(Cadd9)Remember the footsteps, remember the (G)words said
And all your (D)little brother's favorite songs (Dsus4)

e|---------------------------------2------|
B|-------3--------3----------3-----3------|
G|----0----0---0---0-----2----2----2------|
D|----------------------0----------0------|
A|---------------------------------0------|
E|--3---------3--------------------0------|
I just realized everything I had is someday gonna be gone

Verse 3:

So here I am in my new apartment
In a big city, they just dropped me off (pause)
It's so much colder than I thought it would be
So I tuck myself in and turn my nightlight on

Interlude:

e|-------------------------------------2-2-2-2-2-2-2-------------|
B|-------------------------------------3-3-3-3-3-3-3-------------|
G|---------0------0-------------0----0h2-2-2-2-2-2-2p0-----------|
D|---2--2------2-----0------0------------------------------------|
A|---3-------3-------2----2--------------------------------------|
E|---------------------------------------------------------------|

e|-------------------------------------------------2-2-2-2-2-2-2-2-2---|
B|-------------------------------------------------3-3-3-3-3-3-3-3-3---|
G|---------0--------------0----------0-------------0-0-0h2-2-2-2-2-2---|
D|--2--2------2------2-------0--0------2-----2-----0-0-0-0-0-0-0-0-0---|
A|--3-------------3----------2-------------3-------0-0-0-0-0-0-0-0-0---|
E|-------------------------------------------------0-0-0-0-0-0-0-0-0---|
I Wish Id Never grown up                                   Wish Id never grown up


(G)Oh I don't (G*)wanna grow up
Wish I'd (Cadd9)never grown up
Could (Dus4)still be little
(G)Oh I don't (G*)wanna grow up
Wish Id (Cadd9))never grown up
It could (Dsus4)still be simple

(Chorus:) *strum the first half* then go back to the pattern
*Oh darling don't you ever grow up, don't you ever grow up
Just stay this little
Oh darling don't you ever grow up, don't you ever grow up
It could stay this simple*
Won't let nobody hurt you
Won't let no one break your heat
And even through you want to, please try to never grow up

Play the intro to end:
Oh Oh ohm ohhhh
Don't you ever grow up
Oh ohh oh
Just never grow up


*G: Im not sure what the same for this chord is. Its some variation of G.
		2
		3
		0
		0
		0
		2

Cadd9:  3        G: 3      D:  2        Dsus4:  3
	3           3          3                3
	0           0          2                2
	2           0          0                0
	3           2          0                0
	0           3          0                0
Related for Never Grow Up tab
Never Grow Up chords by Taylor Swift