Song name
# A B C D E F G H I J K L M N O P Q R S T U V W X Y Z

Taylor Swift - The Story Of Us tab

-------------------------------------------------------------------------------
			     The Story of Us (Solo) - Taylor Swift
-------------------------------------------------------------------------------
The solo starts at around 2:40 in the song

CAPO 2: tab relative to the capo

e|-------5--------5-------------------------------------------|
B|-3-2-3----3-2-3----2-3--2-3-0--2-3-0--2-3-------------------|
G|------------------------------------------------------------|
D|------------------------------------------------------------|
A|------------------------------------------------------------|
E|------------------------------------------------------------|

e|-------5--------5--7-5--12-10-10-9-9-7-7-5h7p5--------------|
B|-3-2-3----3-2-3---------------------------------------------|
G|------------------------------------------------------------|
D|------------------------------------------------------------|
A|------------------------------------------------------------|
E|------------------------------------------------------------|
Tap to rate this tab
 
# A B C D E F G H I J K L M N O P Q R S T U V W X Y Z