Guitaretab - guitar tabs
Song name
# A B C D E F G H I J K L M N O P Q R S T U V W X Y Z

Taylor Swift - Sparks Fly tab

This is for standard tuning (I know the song is supposed to be played with a capo, but I 
have one and there's versions you can find that don't use them).
I hope it works well for you because I think it sounds great. This is my first tab and I 
it by myself so please be nice! Hopefully my guitar was in tune at the time. Enjoy!
I count it as 1 2and 3 4 for each 4 counts but the last 4 on the first line then its 
1 2 3 4 and the last 6 notes on the second line I count 1 2 3e 4and
[ Tab from: http://www.guitaretab.com/t/taylor-swift/256113.html ]
E---0--0----0--2---0--0----0--2---0--0----0--2----0--2--4------------|
B--------2---------------2-------------2-------4---------------------|
G--------------------------------------------------------------------|
D--------------------------------------------------------------------|
A--------------------------------------------------------------------|
E--------------------------------------------------------------------|

E---0--0----0--2---0--0----0--2---0--0----0--2----0--2--4--2--0------|
B---------2--------------2-------------2--------4--------------------|
G--------------------------------------------------------------------|
D--------------------------------------------------------------------|
A--------------------------------------------------------------------|
E--------------------------------------------------------------------|
Related for Sparks Fly tab
Sparks Fly chords by Taylor Swift