Taylor Swift - White Horse Acoustic chords

Highlighted       Show chord diagrams
hey guys, this is my first tabelature, so be nice and sorry for any mistakes :) This is 
a great song, and i will show you the tab for the into and the chords for the whole 
song. hope it works for you :)

Standard tuning

---------3----------3---------3---------3----|
-1--1----1----1--1--1---1--1--1---1--1--1----|
---------0----------3---------0---------0----|
--------------3--3----------------3--3-------|
-3--3-------------------0--0-----------------|
---------------------------------------------|          x2


---------3----------3---------3---------3----|
-1--1----1----1--1--1---1--1--1---1--1--1----|
---------0----------3---------0---------0----|
--------------3--3----------------3--3-------|
-3--3-------------------0--0-----------------|
---------------------------------------------|
say you're sorry, that face of an angel coems out just when you need it to...

---------3----------3---------3---------3----|
-1--1----1----1--1--1---1--1--1---1--1--1----|
---------0----------3---------0---------0----|
--------------3--3----------------3--3-------|
-3--3-------------------0--0-----------------|
---------------------------------------------|
as i pace back and forth all this time 'cas I  honestly believed in you


Am              F
Holding on the days drag on
       G
stupid girl, should've known, should've known

          C                     F
I'm not a princess, this aint a fairytale,
            Am                             F
I'm not the one you'll sweep off her feet, lead her up the stairwell
          C                    F
This aint hollywood, this is a small town,
        Am                          F
I was a dreamer before you went and let me down
         Am           F            G
Now it's too late for you and your white horse
              C
To come around



C                F
Maybe I was naive, got lost in your eyes
    Am                         F
and never really had a chance
C                    F
My mistake, i didn't know to be in love
           Am                          F
you had to fight or have the upper hand

      Am                   F
I had so many dreams about you and me
      G
happy endings, now i know

          C                     F
I'm not a princess, this aint a fairytale,
            Am                             F
I'm not the one you'll sweep off her feet, lead her up the stairwell
          C                    F
This aint hollywood, this is a small town,
        Am                          F
I was a dreamer before you went and let me down
         Am           F            G
Now it's too late for you and your white horse
              C
To come around


Am               G          F
  And there you are on your knees
Am                G                   F
  Begging for forgiveness, begging for me
Am            G              F          G
  Just like i always wanted, but i'm so sorry.

                 C                     F
Cas I'm not your princess, this aint a fairytale
          Am                             F
I'm gonna find someone someday who might actually treat me well
          C                     F
This is a big world, that was a small town
            Am              F
there in my rearview mirror dissapearing now
         Am           G            Am
and it;s too late for you and your whbite horse
         Am           G              F
now it's too late for you and your white horse
           C     F
to catch me now
    Am
Oh---------
F                  C
  try and catch me now
    F
ohh
Am              F
  it's too late
             C
To catch me now
Tap to rate this tab
 
# A B C D E F G H I J K L M N O P Q R S T U V W X Y Z