Taylor Swift - Haunted tab

very nice haunting solo here haha. it may be tricky to get the bends on pitch
at first, but you'll get it.

Also, here's a video of me playing some Taylor Swift solos, including this one.
Go check it out!

http://www.youtube.com/watch?v=AVEcjU-Si5s


Legend: (/) Slide Up  (\) Slide Down  (h) Hammer On  (p) Pull Off  (b) Bend (r) Release
(v) Vibrato

E|------------------------------------|
B|--8b10v--8b10--8b10--8b10r8p6--8----|
G|------------------------------------|
D|------------------------------------|
A|------------------------------------|
E|------------------------------------|

E|------------------------8----|
B|--10b11v--10b11--10b11-------|
G|-----------------------------|
D|-----------------------------|
A|-----------------------------|
E|-----------------------------|

E|-------------------------------6--8--6--5--5/8v--|
B|--6--8b10v--8b10--10--8--8b10--------------------|
G|-------------------------------------------------|
D|-------------------------------------------------|
A|-------------------------------------------------|
E|-------------------------------------------------|
                                              ^
                           play from previous bend

E|--8--13--8--12--8--10--8------10--8/10v--|
B|--------------------------10-------------|
G|-----------------------------------------|
D|-----------------------------------------|
A|-----------------------------------------|
E|-----------------------------------------|
Tap to rate this tab
 
# A B C D E F G H I J K L M N O P Q R S T U V W X Y Z