Taylor Swift - Mine tab

just a simple solo here but very fun to play. enjoy!

Also, here's a video of me playing some Taylor Swift solos, including this one.
Go check it out!

http://www.youtube.com/watch?v=AVEcjU-Si5s


Legend: (/) Slide Up  (\) Slide Down  (h) Hammer On  (p) Pull Off  (b) Bend (r) Release
(v) Vibrato

E|--10--10--10--10---10--10--10---10----|
B|--7/8--8---7--7/8---8---7--7/8---7----|
G|--------------------------------------|
D|--------------------------------------|
A|--------------------------------------|
E|--------------------------------------|

E|--10--10--10--10---10--10--10---10------------10--12--10/12v---|
B|--7/8--8---7--7/8---8---7--7/8---10---7/8--10------------------|
G|---------------------------------------------------------------|
D|---------------------------------------------------------------|
A|---------------------------------------------------------------|
E|---------------------------------------------------------------|

E|-------------7--8-8/10v------------------------------------------|
B|---7--8--10---------------12\10--8/10v---12\10--8/10-8-7-7/8v----|
G|-7--7--7---7--7--------------------------------------------------|
D|-----------------------------------------------------------------|
A|-----------------------------------------------------------------|
E|-----------------------------------------------------------------|
Tap to rate this tab
 
# A B C D E F G H I J K L M N O P Q R S T U V W X Y Z