Song name
# A B C D E F G H I J K L M N O P Q R S T U V W X Y Z

Taylor Swift - The Way I Loved You tab

well there's already a version of the solo posted here, but this one is a little bit
more perfected. This is definitely one of my favorite solos by her.

Also, here's a video of me playing some Taylor Swift solos, including this one.
Go check it out!

http://www.youtube.com/watch?v=AVEcjU-Si5s


Legend: (/) Slide Up  (\) Slide Down  (h) Hammer On  (p) Pull Off  (b) Bend (r) Release
(v) Vibrato

E|----------------------------------------------------|
B|------------------------------------------10b11r10--|
G|----------------7--10------10--10--10/12------------|
D|--7--8--10--10---------10---------------------------|
A|----------------------------------------------------|
E|----------------------------------------------------|

E|----------------------------------------------|
B|----------------------------------------------|
G|----------------7--10------10/12--12/14--12v--|
D|--7--8--10--10---------10---------------------|
A|----------------------------------------------|
E|----------------------------------------------|

E|------------------------------------------------------------------|
B|--13b15--13b15--13--10--------13------ -11--10--------------------|
G|-----------------------12b14-----12b14---------12--10-------------|
D|--------------------------------------------------------12--10----|
A|------------------------------------------------------------------|
E|------------------------------------------------------------------|

E|------8---------------------------------------------------------|
B|--10-----10--8--------------------------------------------------|
G|----------------10/12--10-------------10------------------------|
D|---------------------------12--10h12-----12---------------------|
A|---------------------------------------------12-----12p10-------|
E|-------------------------------------------------13---------13--|

*       *      *     *         *

( * = palm muted )
Tap to rate this tab
 
# A B C D E F G H I J K L M N O P Q R S T U V W X Y Z