Taylor Swift - Shouldve Said No tab

well there's already a version of the solo on here but i noticed some mistakes
so i decided to give it a try.

Also, here's a video of me playing some Taylor Swift solos, including this one.
Go check it out!

http://www.youtube.com/watch?v=AVEcjU-Si5s


Legend: (/) Slide Up  (\) Slide Down  (h) Hammer On  (p) Pull Off  (b) Bend (r) Release
(v) Vibrato

E|-----------------------------------------------------|
B|-------3p0-------------------------------------------|
G|--2b4-------2b4r2p0-----0--2b4--4--2b4r2p0-----0-----|
D|---------------------2----------------------2--------|
A|-----------------------------------------------------|
E|-----------------------------------------------------|
          ^                                                                  ^
delayed bend                      played while holding the previous bend


E|----------------------------------------------------------------|
B|----------------------------------------------------------------|
G|---/5--5--5p4--4--4--4--4/5--5/7--7/9--9/11--11/12--12----------|
D|----------------------------------------------------------------|
A|----------------------------------------------------------------|
E|----------------------------------------------------------------|

E|------------------------------------------------------|
B|---------15---------15---------15---------15--15------|
G|--14b16------14b16------14b16------14b16------14b16v--|
D|------------------------------------------------------|
A|------------------------------------------------------|
E|------------------------------------------------------|
Tap to rate this tab
 
# A B C D E F G H I J K L M N O P Q R S T U V W X Y Z