Taylor Swift - Enchanted tab

-------------------------------------------------------------------------------
			     Enchanted(Solo)- Taylor Swift
-------------------------------------------------------------------------------
Tabbed by: tmasia

Tuning: Standard

There are two ways of playing this, in the case that you just play the solo without a 
capo, and in the case that you're playing the song using the chords, which you will 
probably use while having a capo on 1.

Here's the non- capo version

e|-6-8-----6------------------------8--6-------------------------------------|
B|------9-----8-----------6--8--9--------------------------------------------|
G|---------------5--6--8-----------------------------------------------------|
D|---------------------------------------------------------------------------|
A|---------------------------------------------------------------------------|
E|---------------------------------------------------------------------------|


With Capo on 1:

e|-5--7----5-------------------------7--5------------------------------------|
B|-------8---7-------------5--7--8-------------------------------------------|
G|---------------4--5--7-----------------------------------------------------|
D|---------------------------------------------------------------------------|
A|---------------------------------------------------------------------------|
E|---------------------------------------------------------------------------|


Enjoy! :)
Tap to rate this tab
 
# A B C D E F G H I J K L M N O P Q R S T U V W X Y Z