Taylor Swift - Back To December tab

____________________________=Back to December=_______________________________
                                   by
                              TAYLOR SWIFT ♥
_____________________________________________________________________________
                                 
                        Tabbed by: XxTOKIO-HOTELxX.
_____________________________________________________________________________


Im pretty sure this is 100% right :)


e|---3-2-------2-2------2-2h3-----------------|
B|--------2h4------2h4------------------------|
G|-----------------------------2h4-2h4-2h4-2--|
D|--------------------------------------------|
A|--------------------------------------------|
E|--------------------------------------------| 2x



                     OR
           (you could do it like this)
                 (your choice)



e|---3-2-----------------------------------------------|
B|--------2h4----7--7----2h4---7-7--8------------------|
G|--------------------------------------2h4-2h4-2h4-2--|
D|-----------------------------------------------------|
A|-----------------------------------------------------|
E|-----------------------------------------------------|2x



HAPPY TABBING: :)
Tap to rate this tab
 
# A B C D E F G H I J K L M N O P Q R S T U V W X Y Z