Song name
# A B C D E F G H I J K L M N O P Q R S T U V W X Y Z

Taylor Swift - Enchanted tab

READ: I have tabbed most of the lead guitar however I cannot quite get the last part of 
the chorus. The parts not tabbed, you'll play power chords if you please.


CHORUS:
Play this each line.
[This night is sparkling, don't you let it go]
[I'm wonderstruck dancing round all alone]
[I'll spend forever wonderin' if you knew]
Guitar 1:
e|-------------------------------------------------------------------|
B|-12------12------12----12-10---------------------------------------|
G|-----12------12--------------11---9--------------------------------|
D|---12--12--12--12--12-----------12---------------------------------|
A|-------------------------------------------------------------------|
E|-------------------------------------------------------------------|
However I don't know what comes after "knew" or what to play during "I was enchanted to 
meet you.", please please please comment if you have an idea. Don't email, I don't check.


Guitar 2 [Optional]:
Play this for each line.
e|-------------------------------------------------------------------|
B|--10---10---15---15---14---14---12---12----------------------------|
G|-------------------------------------------------------------------|
D|-------------------------------------------------------------------|
A|-------------------------------------------------------------------|
E|-------------------------------------------------------------------|

Solo!
e|-------------------------------------------------------------------|
B|-------------------------------------------------------------------|
G|-3/-5-5-5-5-5-5-5-5/-8-8-8-8-8\-5/-10-10-10-10\-8\-5-5-5\----------|
D|-------------------------------------------------------------------|
A|-------------------------------------------------------------------|
E|-------------------------------------------------------------------|

e|-------------------------------------------------------------------|
B|-11-13\-9-11\-8-------------8-9/-13-11-----------------------------|
G|----------------------8-10-----------------------------------------|
D|----------------10-11----------------------------------------------|
A|-------------------------------------------------------------------|
E|-------------------------------------------------------------------|

/ slide up
\ slide down
Tap to rate this tab
 
# A B C D E F G H I J K L M N O P Q R S T U V W X Y Z