Taylor Swift - Untouchable tab

Capo 3

This is how my friend and me play it, sorry if it's not all right, it took ages to 
type out! This is my first tab :) xox

Guitar 1

Pluck strings

e|-0-0----3-3-----2-2-----0-0----------------------------|
B|-------------------3----2-2--0-------------------------|
G|-------------------------------------------------------|
D|----------------0-0-----2-2----------------------------|x2
A|-------------------------------------------------------|
E|-0-0----3-3--------------------------------------------|

VERSE

e|-0-0----3-3-----2-2-----0-0-------------------------------|
B|------------------------2-2--0----------------------------|
G|----------------------------------------------------------|
D|----------------0-0-----2-2-------------------------------|x3
A|----------------------------------------------------------|
E|-0-0----3-3-----------------------------------------------|

Then

e|----3-3---3-3----0-0---0-0---------|
B|----3-3---3-3----2-2---2-2---------|
G|-----------------------------------|
D|----0-0---0-0----2-2---2-2---------|
A|-----------------------------------|
E|-----------------------------------|

Chorus:

e|--2-2--2-2---0-0--0-0---0-0---0-0---3-3---0-0----------|
B|--3-3--3-3---2-2--2-2---0-0---0-0---0-0---2-2----------|
G|-------------------------------------------------------|
D|--0-0--0-0---2-2--2-2---2-2---2-2---0-0---2-2----------|
A|-------------------------------------------------------|
E|-------------------------------------------------------|

repeat intro once

Verse 2

e|-0-0----3-3-----2-2-----0-0-------------------------------|
B|------------------------2-2--0----------------------------|
G|----------------------------------------------------------|
D|----------------0-0-----2-2-------------------------------|play this x2
A|----------------------------------------------------------|
E|-0-0----3-3-----------------------------------------------|

Then

e|----3-3---3-3----0-0---0-0---------|
B|----3-3---3-3----2-2---2-2---------|
G|-----------------------------------|
D|----0-0---0-0----2-2---2-2---------|
A|-----------------------------------|
E|-----------------------------------|

Chorus:

e|--2-2--2-2---0-0--0-0---0-0---0-0---3-3---0-0----------|
B|--3-3--3-3---2-2--2-2---0-0---0-0---0-0---2-2----------|
G|-------------------------------------------------------|x2
D|--0-0--0-0---2-2--2-2---2-2---2-2---0-0---2-2----------|
A|-------------------------------------------------------|
E|-------------------------------------------------------|

Bridge

e|-0-0----3-3-----2-2-----0-0----------------------------|
B|------------------------2-2----------------------------|
G|-------------------------------------------------------|
D|-2-2----0-0-----0-0-----2-2----------------------------| x2
A|-------------------------------------------------------|
E|-------------------------------------------------------|

Then

e|----3-3---3-3-------------|
B|----3-3---3-3-------------|
G|--------------------------|
D|----0-0---0-0-------------|
A|--------------------------|
E|--------------------------|


Then the intro comes back at the end


Guitar 2
Strum each chord downwards

Em      Em           G       G        D    D     A     A
  Untouchable like a distant diamond sky
Em            Em         G         G        D    D     A     
  I'm reaching out and I just can't tell you why
A                Em  Em  G     G              D   D   A   A
I'm caught up in you,        I'm caught up in you

(Fast downward strums for this next bit)

Em
Untouchable, burning brighter than the sun
G                                   A (single strum)
And when you're close, I feel like coming undone

(Now a loose strumming up and down if you get me)

       D
In the middle of the night when I'm in this dream
             A
It's like a million little stars spelling out your name
         Em
You gotta come on, come on, say that we'll be together
G                  A (single strum)
 Come on, come on, little taste of heaven

(G1 plays intro)

(same pattern as verse 1)

Em           Em        G          G        D   D   A    A
  It's half full and I won't wait here all day
Em              Em                G       G      D    D   A   A
  I know you're saying that you'd be here     anyway

(downward strums as before)

           Em
But you're untouchable, burning brighter than the sun
G                                    A (single strum)
  Now that you're close, I feel like coming undone



(Now a loose strumming up and down if you get me)

       D
In the middle of the night when I'm in this dream
             A
It's like a million little stars spelling out your name
         Em
You gotta come on, come on, say that we'll be together
G                  A 
 Come on, come on, oh

       D      
In the middle of the night waking from this dream
        A
I wanna feel you by my side, standing next to me
         Em
You gotta come on, come on, say that we'll be together
G                    A (single strum)
  Come on, come on, little taste of heaven


D, A , Em, G

I'm caught up in you
Oh, oh, oh

(downward strums)
         Em
But your untouchable, burning brighter than the sun
G                                    A
  Now that you're close, I feel like coming undone

Now its the same as the other choruses (I cant be bothered to type it out again)

In the middle of the night when I'm in this dream
It's like a million little stars spelling out your name
You gotta come on, come on, say that we'll be together
Come on, come on, oh

In the middle of the night when I'm in this dream
It's like a million little stars spelling out your name
You gotta come on, come on, say that we'll be together
Come on, come on, come on

In the middle of the night waking from this dream
I wanna feel you by my side, standing next to me
You gotta come on, come on, say that we'll be together
Come on, come on, little taste of heaven

And in the middle of the night when I'm in this dream
It's like a million little stars spelling out your name
You gotta come on, come on, come on, come on
Come on, come on, oh, oh, oh

(Intro again from G1)

Like a million little stars spelling out your name
They're spelling out your name, oh


Hope you like it!
Tap to rate this tab
 
# A B C D E F G H I J K L M N O P Q R S T U V W X Y Z