Taylor Swift - The Story Of Us tab

The solo starts at around 2:40 in the song

CAPO 2: tab relative to the capo

e|------------------------------------------------------------|
B|------------------------------------------------------------|
G|----------13------------13----------------------------------|
D|-11-10-11-----11-10-11------10-11--10-11-----10-11----10-11-|
A|-----------------------------------------13--------13-------|
E|------------------------------------------------------------|

e|------------------------------------------------------------|
B|--------------------------------17-15-15-14-14-12-12-10h12--|
G|-----------13----------13\15-13-----------------------------|
D|-11-10-11-----11-10-11--------------------------------------|
A|------------------------------------------------------------|
E|------------------------------------------------------------|
Tap to rate this tab
 
# A B C D E F G H I J K L M N O P Q R S T U V W X Y Z