Song name
# A B C D E F G H I J K L M N O P Q R S T U V W X Y Z

Taylor Swift - Our Song tab



                            Taylor Swift - Our Song


                ** The Credit for this tabs goes to Kris Farrow. **


Tune: Standart


*h=hammer on
 p=pull off


Intro:



     1)----------------2p0-------------------|
     2)-----------3-----------3--------------|
     3)----2h4---------------------4----2----|
     4)--------------------------------------|
     5)--------------------------------------|
     6)--------------------------------------|


     1)----------------2p0----2p0------------|
     2)-----------3-----------------3--------|
     3)----2h4-------------------------------|
     4)----0---------------------------------|
     5)--------------------------------------|
     6)--------------------------------------|


     1)----------------2p0----2p0------------|
     2)-----------3-----------------3--------|
     3)----2h4-------------------------------|
     4)--------------------------------------|
     5)--------------------------------------|
     6)----0---------------------------------|


     1)----------------2p0----2p0--------3----2----0---------|
     2)-----------3-----------------3-------------------3----|
     3)----2h4-----------------------------------------------|
     4)------------------------------------------------------|
     5)----------------------------------0-------------------|
     6)----3-------------------------------------------------|
Tap to rate this tab
# A B C D E F G H I J K L M N O P Q R S T U V W X Y Z