Song name
# A B C D E F G H I J K L M N O P Q R S T U V W X Y Z

Taylor Swift - Mean tab

okay folks and blokes its time for another tab okay lets go

i was tired of there not being any good tabs for this song which i infact have on good 
athourity is also a Turbocharged Chick Magnetizing Device so i made one

is just the intro so far yo so it dont have the second banjo part wit de soloss o or 
anything yet i was to tierd to tab it

 thers mmore to com tho..

p ezzy for the most part
~~~~~~~~~~~~~~~~~~~
~~`!
Mean

Taylor Swift
Tabbed by Me.

     a   a a a
     m   m m m
     i   i m i
   p   p
E|---2-----0-0-|
B|---5---5-5-5-|
G|---4---4-4-4-|
D|-6---6-------|
A|-------------|
E|-------------|

E|---2---------|
B|---4-----4-4-|
G|---4---4-4-4-|
D|-4---4-------|
A|-------------|
E|-------------|

E|---0-------0-0-|
B|---5-x-x-x---5-|
G|---6---------6-|
D|---7---------7-|
A|-7----------7--|
E|---------------|


hey no stop i see wat u wer doing keep yuor second fingor on the 9 when you move it from 
the six ok
E|--------0---------x-|
B|--------0-x-------7-|
G|--6-9---9-x----9-/8-|
D|----11-11-x-x--11/9-|
A|-7-/11-11---x--11/9-|
E|--------------------|

   a
   m
   i ^ v ^
E|-x-x-x-x-|
B|-7-7-7-7-|
G|-8-8-8-8-|
D|-9-9-9-9-|
A|---------|
E|---------|

wat he only did 2 thist ime was he dronk or waht idk lol
E|---0-----0-0-----|
B|---5-x-x---5-x-x-|
G|---6-x-x---6-x-x-|
D|---7-------7-----|
A|-7--------7------|
E|-----------------|

E|--------9---------9-|
B|--------9-x-------7-|
G|--6-9---9-x----9-/8-|
D|----11-11-x-x--11/9-|
A|-7-/11-11---x--11/9-|
E|--------------------|

then the ban joss tarts
Tap to rate this tab
 
# A B C D E F G H I J K L M N O P Q R S T U V W X Y Z