Song name
# A B C D E F G H I J K L M N O P Q R S T U V W X Y Z

Taylor Swift - Untouchable tab

CAPO ON 3RD. LOVE THIS SONG. ITS GREAT. BY ALEX. 

INTRO:
e|-0-0----3-3-----2-2---0-0----------------------------|
B|-------------------3--2-2--3-------------------------|
G|-----------------------------------------------------|
D|----------------0-0---2-2----------------------------|   x2
A|-----------------------------------------------------|
E|-0-0----3-3------------------------------------------|


UNTOUCHABLE LIKE A DISTANT DIAMOND SKY..... 
e|-0-0----3-3-----2-2-----0-0-------------------------------|
B|-------------------3----2-2--3----------------------------|
G|----------------------------------------------------------|
D|----------------0-0-----2-2-------------------------------| x3
A|----------------------------------------------------------|
E|-0-0----3-3-----------------------------------------------|


UNTOCHABLE SHINING BRIGHTER THAN THE SUN... 
e|----3-3---3-3----0-0---0-0---------|
B|----3-3---3-3----2-2---2-2---------|
G|-----------------------------------|
D|----0-0---0-0----2-2---2-2---------|
A|-----------------------------------|
E|-----------------------------------|


CHORUS:
e|--2-2--2-2---0-0--0-0---0-0---0-0---3-3---0-0----------|
B|--3-3--3-3---2-2--2-2---0-0---0-0---0-0---2-2----------|
G|-------------------------------------------------------|
D|--0-0--0-0---2-2--2-2---2-2---2-2---0-0---2-2----------|
A|-------------------------------------------------------|
E|-------------------------------------------------------|

REPEAT INRO X1


IT'S HALF FULL AND I WON'T WAIT HERE ALL DAY...... 
e|-0-0----3-3-----2-2-----0-0-------------------------------|
B|------------------------2-2--0----------------------------|
G|----------------------------------------------------------|
D|----------------0-0-----2-2-------------------------------|play this x2
A|----------------------------------------------------------|
E|-0-0----3-3-----------------------------------------------|


UNTOUCHABLE SHINING BRIGHTER THAN THE SUN...... 
e|----3-3---3-3----0-0---0-0---------|
B|----3-3---3-3----2-2---2-2---------|
G|-----------------------------------|
D|----0-0---0-0----2-2---2-2---------|
A|-----------------------------------|
E|-----------------------------------|


CHORUS:
e|--2-2--2-2---0-0--0-0---0-0---0-0---3-3---0-0----------|
B|--3-3--3-3---2-2--2-2---0-0---0-0---0-0---2-2----------|
G|-------------------------------------------------------|x2
D|--0-0--0-0---2-2--2-2---2-2---2-2---0-0---2-2----------|
A|-------------------------------------------------------|
E|-------------------------------------------------------|


CAUGHT UP IN YOU..... 
e|-0-0----3-3-----2-2-----0-0----------------------------|
B|------------------------2-2----------------------------|
G|-------------------------------------------------------|
D|-2-2----0-0-----0-0-----2-2----------------------------|play this x2
A|-------------------------------------------------------|
E|-------------------------------------------------------|


e|----3-3---3-3-------------|
B|----3-3---3-3-------------|
G|--------------------------|
D|----0-0---0-0-------------|
A|--------------------------|
E|--------------------------|

CHORUS: 
e|--2-2--2-2---0-0--0-0--s-0----2----0-----------|
B|--3-3--3-3---2-2--2-2--t-2----2----2-----------|
G|-----------------------r-2-x8-0-x8-2-x8--------|
D|--0-0--0-0---2-2--2-2--u-0----0----2-----------|
A|-----------------------m-0----2----0-----------|
E|-------------------------0----3----0-----------|
Tap to rate this tab
 
# A B C D E F G H I J K L M N O P Q R S T U V W X Y Z