Song name
# A B C D E F G H I J K L M N O P Q R S T U V W X Y Z

Taylor Swift - Mean tab

Mean
Taylor Swift
Tabbed by Me.

     a   a
     m       m
     i     i
   p   p
E|---0---0-----|
B|---5-------5-|
G|---4-----4---|
D|-X---6-------|
A|-------------|
E|-------------|

E|-------------|
B|---0---0-----|
G|---8-------8-|
D|---9-----9---|
A|-9---9-------|
E|-------------|

E|---0-------0---0------------|
B|---5---5-------5---5--------|
G|---6-----6-----6---6--------|
D|-----7-----------7---7/(11)-|
A|-7-----------7--------------|
E|----------------------------|


hey no stop i see wat u wer doeng keep yuor second fingor on the 9 when you move it 
from] the six ok
E|----------------------|
B|-----0----0----7------|
G|-----9-------9------8-|
D|----11------11------9-|
A|-11----11--------9----|
E|----------------------|

   a
   m
   i ^ v ^
E|---------|
B|---7-----|
G|-------8-|
D|-----9---|
A|-9-------|
E|---------|

E|---0-------0---0-------|
B|---5---5-------5---5---|
G|---6-----6-----6---6---|
D|-----7-----------7---7-|
A|-7-----------7---------|
E|-----------------------|

use ur index hear 4 de
E|------<12>------------|
B|----0------------0----|
G|----9------------9-11-|
D|-11-----------11------|
A|-11--------11---------|
E|----------------------|

E|---------------|
B|---0----0------|
G|---11-------11-|
D|---9-----------|
A|----------9----|
E|-7----7--------|

E|--5-------5----5-5-4-2---|
B|--2---2--------2-------5-|
G|--2------------------2---|
D|--2-----2--------2-------|
A|-0--0-------0~-----------|
E|-------------------------|

E|---------------9--7--------|
B|-----0----0-------0---0----|
G|-----9------------8------8-|
D|----11------11---------9---|
A|-11----11-------9---9------|
E|---------------------------|

E|-----------5---5-|
B|-----------------|
G|---6---6-------6-|
D|---7-----7-----7-|
A|-7---7-------7---|
E|-----------------|

if you made it to her than u r the winnaer now youu get 2 do slide
E|-7/9-9------------------|
A|------------0----0------|
B|-------11---11-------11-|
G|-6/7--------9------9----|
B|----------9----9--------|
E|------------------------|

E|---------------|
A|---0----0------|
B|---11-------11-|
G|---9------9----|
B|-9----9--------|
E|---------------|

E|----------------|
A|---7h9---7------|
B|---9---------9--|
G|---9-------9----|
B|-7-----7--------|
E|----------------|

E|---------------|
A|---9-10--0---9-|
B|---9-----------|
G|---9-------9---|
B|-9-----9-------|
E|---------------|

E|-------------0~-|
A|---7---------5~-|
B|---8---8---8-6~-|
G|---9-----9---7~-|
B|-9---9-------7~-|
E|----------------|
Tap to rate this tab
# A B C D E F G H I J K L M N O P Q R S T U V W X Y Z