Song name
# A B C D E F G H I J K L M N O P Q R S T U V W X Y Z

Taylor Swift - Mean tab

Artist: Taylor Swift
Song: Mean
Album: Speak Now

Couldn't find a good tab for this solo, so here it is.

-> Capo 4

e|--------------------------------------------------------------|
B|----------------------6---5---3---6-5-3-----------------------|
G|-3/5-5-5--55-5-4-2--0---0---0---0-------5-----0---------------|
D|-3/5-5------------------------------------0h2---0h2-----------|
A|-1/3-3----------------------------------------------3---------|
E|--------------------------------------------------------------|

e|--------------------------------------------------------------|
B|---------------------------3-5-6-5-3--------------------------|
G|-------------------------------------5-0----------------------|
D|---0h2-2-2-0h2-2-2-0h-2-2-------------------------------------|
A|-3------------------------------------------------------------|
E|--------------------------------------------------------------|
                                         ^ this last note is actually a G

I think this is pretty accurate.

Enjoy, Remax.
Tap to rate this tab
 
# A B C D E F G H I J K L M N O P Q R S T U V W X Y Z