Song name
# A B C D E F G H I J K L M N O P Q R S T U V W X Y Z

Taylor Swift - Safe And Sound tab

Safe & Sound
Taylor Swift Feat. The Civil Wars
Capo 3

Intro/Verse Part 1
E) --------5p4----------------------------------------------------------|
B) --------7-------------5--0h2-----2--0----------0----------5----------|
G) -----6-------6--------6--2-------2--2------------------4-------------|
D) --4----------------6-----2-------2--2--4h6---------------------------|
A) ----------------4--------0----0--------------------4h6---------------|
E) ---------------------------------------0----0------------------------|

Intro/Verse Part 2
E) --------5p4-----------------0--0-------------------------------------|
B) --------7-------------5--2-------------------------------------------|
G) -----6-------6--------6--2-------------------------------------------|
D) --4----------------6-----2-------------------------------------------|
A) ----------------4--------0-------------------------------------------|
E) -------------------------------0-------------------------------------|

Pre-Chorus
E) -----------------2--------2--4---------------------------------------|
B) -----4-----5--------2--5--------2------------------------------------|
G) -----4-----4---------------------------------------------------------|
D) ---------------------------------------------------------------------|
A) --2-----2-----2-----0------------------------------------------------|
E) ---------------------------------------------------------------------|

Chorus Part 1
E) -----0-----2-----4-----7--------7p4-----------(-----4----------------|
B) --2--2-----2-----5-----5--------5-------------(--7-----7--5----------|
G) --2-----2-----2-----4--------4------------x3--(------------------x2--|
D) --------------------------6----------6--------(----------------------|
A) --0-------------------------------------------(----------------------|
E) -----------------------0----------------------(--7-------------------|

Chorus Part 2
E) -----4-----------2-----0--2--4---------------------------------------|
B) --7-----7--5--5--4--2-----------2------------------------------------|
G) --------------6--4------------------------x1-------------------------|
D) --------------6------------------------------------------------------|
A) --6-----------4--2--1------------------------------------------------|
E) ---------------------------------------------------------------------|

2nd Chorus Part 1 (Strumming)
E) ---------------------0---------0---------------------------------------|
B) --2------------------0---------0---------------------------------------|
G) --2------------------1---------4------x2------------------------------|
D) --2------------------2---------4---------------------------------------|
A) --0------------------2---------2---------------------------------------|
E) ---------------------0-------------------------------------------------|

2nd Chorus Part 2 (Strumming)
E) ---------------------0---------0---------0---------0-----------------|
B) --2------------------0---------0---------0---------0---------2-------|
G) --2------------------1---------4---------6---------4---------1-------|
D) --2------------------2---------4---------6---------4---------2-------|
A) --0------------------2---------6---------4---------2---------1-------|
E) ---------------------0-----------------------------------------------|

Bridge (Strumming)
E) ---------------------0------------------0------------------0---------|
B) --0------------------0------------------0------------------0---------|
G) --2------------------4------------------6------------------4--repeat-|
D) --2------------------4------------------6------------------4---------|
A) --0------------------2------------------4------------------2---------|
E) ---------------------------------------------------------------------|
Tap to rate this tab
 
# A B C D E F G H I J K L M N O P Q R S T U V W X Y Z