Song name
# A B C D E F G H I J K L M N O P Q R S T U V W X Y Z

Taylor Swift - Ronan tab

Chords:

          C   Am7
E---------0----0----0-----------|
B---------1----1----1----1------|
G---------0----0----0----0------|
D---------2----2----3----0------|
A---------3----0---------x------|
E------------------------3------|

Intro and Verse:
E-------------------------------------------------------0-----------------|
B----------1--------1---------1-----1----------1----------------------1---|
G-----0------0------------0-----0----------0-----0---------------0------0-|
D-----------------------------------------3-------------------------------|
A--3------------3------0--------------------------------------------------|
E-------------------------------------------------------------------------|

I remember your bare feet down the hallway
I remember your little laugh
Race cars on the kitchen floor
Plastic dinosaurs, I love you to the moon and back

E-------------------------------------------------------0-----------------|
B----------1--------1---------1-----1----------1----------------------1---|
G-----0------0------------0-----0----------0-----0---------------0------0-|
D-----------------------------------------3-------------------------------|
A--3------------3------0--------------------------------------------------|
E-------------------------------------------------------------------------|

I remember your blue eyes looking into mine
like we had our own secret club
I remember you dancing before bed time
then jumping on me waking me up
I can still feel you hold my hand
Little man, from even that moment I knew
You fought it hard like an army guy
Remember I leaned in and whispered to you

Chorus:
E---------------------|
B-----1---3----1----1-|
G-----2---0----0----2-|
D-----3---0----2----3-|
A-----3---x----3----3-|
E---------3-----------|

Come on baby with me
We're gonna fly away from here
You were my best four years

Verse 2:

E-------------------------------------------------------0-----------------|
B----------1--------1---------1-----1----------1----------------------1---|
G-----0------0------------0-----0----------0-----0---------------0------0-|
D-----------------------------------------3-------------------------------|
A--3------------3------0--------------------------------------------------|
E-------------------------------------------------------------------------|

I remember the drive home when the blind hope
Turned to crying and screaming, "Why?"
Flowers piled up in the worst way
No one knows what to say about a beautiful boy who died

And it's about to be Halloween
You could be anything you wanted if you were still here
I remember the last day when I kissed your face
I whispered in your ear

Chorus:

E---------------------|
B-----1---3----1----1-|
G-----2---0----0----2-|
D-----3---0----2----3-|
A-----3---x----3----3-|
E---------3-----------|


Come on baby with me
We're gonna fly away from here
Out of this curtained room in this hospital
We'll just disappear
Come on baby with me
We're gonna fly away from here
You were my best four years


Bridge:
E-----------0----3----3-----|
B-----1----1----1----0------|
G-----2----0----0----0------|
D-----3----2----0----0------|
A-----3----0----x----x------|
E----------------3----3-----|

What if I'm standing in your closet trying to talk to you?
What if I kept the hand me downs you won't grow into?
And what if I really thought some miracle would see us through?
But what if the miracle was even getting one moment with you

Final Chorus:

E---------------------|
B-----1---3----1----1-|
G-----2---0----0----2-|
D-----3---0----2----3-|
A-----3---x----3----3-|
E---------3-----------|

Come on baby with me
We're gonna fly away from here
Come on baby with me
We're gonna fly away from here
You were my best four years

Last Verse:
E-------------------------------------------------------0-----------------|
B----------1--------1---------1-----1----------1----------------------1---|
G-----0------0------------0-----0----------0-----0---------------0------0-|
D-----------------------------------------3-------------------------------|
A--3------------3------0--------------------------------------------------|
E-------------------------------------------------------------------------|



I remember your bare feet down the hallway
I love you to the moon and back
Tap to rate this tab
 
# A B C D E F G H I J K L M N O P Q R S T U V W X Y Z