Song name
# A B C D E F G H I J K L M N O P Q R S T U V W X Y Z

Taylor Swift - Safe And Sound chords

Highlighted       Show chord diagrams
-------------------------------------------------------------------------------
                             Safe and Sound - Taylor Swift
-------------------------------------------------------------------------------

Tuning:standard

Riff   
   Am         Em     C          G
e|----------------------------------------------|
B|-----1p0--------------------------------------|
G|---2-----2----0-0-----------------------------|
D|-2----------2------0h2-2-2-0--------0---------|
A|-0----------2------3----------0h2-2---2p0-----|
E|------------------------------------------3p0-|

   Am         Em     C        G
e|----------------------------------------------|
B|-----1p0--------------------------------------|
G|---2-----2----0-0------0----0-----------------|
D|-2----------2------0h2---2--------------------|
A|-0----------2------3--------------------------|
E|----------------------------3-----------------|

Chords: Am Em C G
C G D

1st Verse: Am Em C G 
Am                          Em
I remember tears streaming down your face
C                                G
When I said, I'll never let you go
Am                     Em                 C G
When all those shadows almost killed your light
Am         Em              C             G
I remember you said, Don't leave me here alone
Am                      Em                C   G
But all that's dead and gone and passed tonight

C                  G 
Just close your eyes
D                C
The sun is going down
            G
You'll be alright
D                   C
No one can hurt you now
             G
Come morning light
D               Am       C
You and I'll be safe and sound

2nd verse: same chords (Am Em C G)
Don't you dare look out your window
Darling everything's on fire
The war outside our door keeps raging on
Hold onto this lullaby
Even when the music's gone
Gone

Chorus: same (C G D, Am C at end)
Just close your eyes
The sun is going down
You'll be alright
No one can hurt you now
Come morning light
You and I'll be safe and sound

Ooh, ooh, oh, oh, oh, oh, oh,
Ooh, ooh, oh, oh, oh, oh

Just close your eyes
You'll be alright
Come morning light,
You and I'll be safe and sound

Ooh, ooh, ooh, ooh,
Ooh, ooh, ooh, ooh,
Ooh, ooh, ooh
Oohhh.   

[ Lyrics from: http://www.lyricsty.com/taylor-swift-safe-and-sound-lyrics.html ]

************************************

| /   slide up
| \   slide down
| h   hammer-on
| p   pull-off
| ~   vibrato
| +   harmonic
| x   Mute note
| b   Bend
| pb  Pre-bend
| br  Bend release
| pbr Pre-bend release
| brb Bend release bend

************************************
Tap to rate this tab
 
# A B C D E F G H I J K L M N O P Q R S T U V W X Y Z