Song name
# A B C D E F G H I J K L M N O P Q R S T U V W X Y Z

Taylor Swift - Safe And Sound tab

This is a great song from Taylor Swift (only time you will ever hear me say that) :)

Capo 7
Intro:
e -------------------------------------------------------|
a ---------------1h-0-----------------------1------------|
d ---------------3---------------------------------------|
g --------2------------2-------------2------2------------|
b --0-------------------------0--------------------------|
E -------------------------------------------------------|

e -------------------------------------------------------|
a --------------------------------------------------1----|
d --0h-2--2------2------0----------------0---------------|
g --3-----3------3-------------0h-2--2-------------2-----|
b -----------------------------3-----3-------0h-3--------|
E -------------------------------------------------------|

e --------------1h-0--------------------1----------------|
a --------------3----------------------------------------|
d --------2-----------2-----------2-----2----------------|
g --0-----------------------0----------------------------|
b -------------------------------------------------------|
E -------------------------------------------------------|

e -------------------------------------------------------|
a --------------1------------1---------------------------|
d --2-----2-----------2----------------------------------|
g --3-----3----------------------------------------------|
b ---------------------------3---------------------------|
E -------------------------------------------------------|

Verse:
e --0h-1-----------1h-0--------------0-------------------|
a --3--------------3-----------------1-------------------|
d --------------2--------------2-------------------------|
g --0--------0-----------2-------------------------------|
b -----------------------0-------------------------------|
E -------------------------------------------------------|

e -------------------------------------------------------|
a -----------------------------------------------1-------|
d --0h-2--2-----2-----0--------------0-------------------|
g --3-----3-----3-----------0h-2--2-----------2----------|
b --------------------------3-----3-----0h-3-------------|
E -------------------------------------------------------|

e --------------1h-0-------------------------------------|
a --------------3-----------------------1----------------|
d --------2-----------2-----------------2----------------|
g --0-----------------------------2----------------------|
b --------------------------0----------------------------|
E -------------------------------------------------------|

e -------------------------------------------------------|
a --------------1--------1-----------1-------------------|
d --2-----2-----------2----------------------------------|
g --3-----3--------------------2-------------------------|
b -----------------------3-----------3-------------------|
E -------------------------------------------------------|

e --0h-1-----------1h-0--------------0-------------------|
a --3--------------3-----------------1-------------------|
d --------------2--------------2-------------------------|
g --0--------0-----------2-------------------------------|
b -----------------------0-------------------------------|
E -------------------------------------------------------|

e -------------------------------------------------------|
a -----------------------------------------1-------------|
d --0h-2--2--2--0--------------0-------------------------|
g --3-----3--3--------0h-2--2-----------2----------------|
b --------------------3-----3-----0h-3-------------------|
E -------------------------------------------------------|

e -------------------------------------------------------|
a --------------0--------1-----------3-------------------|
d --------------0----------------------------------------|
g --------0-----------0--2-----2-----------2-------------|
b -------------------------------------------------------|
E --0----------------------------------------------------|

e --------------------0----------------------------------|
a --------1-----3----------------------------------------|
d --2--------------------2-------------------------------|
g -------------------------------------------------------|
b -------------------------------------------------------|
E -------------------------------------------------------|

Chorus:
e --------------------------------------0----------------|
a --1-----------1-----------3----------------------------|
d --2-----------2--------2-----------------------0-------|
g --------3-----------3-----------3-----------0----------|
b -------------------------------------------------------|
E -------------------------------------------------------|

e --------------3h-0-----------0-------------------------|
a --1--------------------3--------3-----1----------------|
d -------------------------------------------------------|
g --------2-----------2----------------------------------|
b --3----------------------------------------------------|
E -----------------------3-------------------------------|

e --------------------------------------0----------------|
a --------------1-----------3----------------------------|
d --0h-2--------2--------2-----------------------0-------|
g --3-----3-----------3-----------3-----------0----------|
b -------------------------------------------------------|
E -------------------------------------------------------|

e --------------3h-0-----------------0-------------------|
a --1--------------------------3--------3-----1----------|
d -------------------------------------------------------|
g --------2--------------2-------------------------------|
b --3--------------------------3-------------------------|
E -------------------------------------------------------|

e --------------------------------------0----------------|
a --------------1-----------3----------------------------|
d --0h-2--------2--------2-----------------------0-------|
g --3-----3-----------3-----------3-----------0----------|
b -------------------------------------------------------|
E -------------------------------------------------------|

e --------------3h-0-----------------0-------------------|
a --1--------------------------3--------3-----1----------|
d -------------------------------------------------------|
g --------2--------------2-------------------------------|
b --3--------------------------3-------------------------|
E -------------------------------------------------------|

e ----------0-----------------0---1----------------------|
a --------------1----------------------------------------|
d -------------------------------------------------------|
g ------2-----------------2------------------------------|
b --0----------------------------------------------------|
E --------------------3----------------------------------|

e --------------0----------------------------------------|
a ------1---3--------------------------------------------|
d --2---------------2------------------------------------|
g -------------------------------------------------------|
b -------------------------------------------------------|
E -------------------------------------------------------|

Verse 2:
e --0h-1--------1h-0-------------0-----------------------|
a --3-----------3-----0h-1--1----1-----------------------|
d -----------2--------2----------------------------------|
g --0-----0----------------------------------------------|
b -------------------------------------------------------|
E -------------------------------------------------------|

e -------------------------------------------------------|
a -----------------------------------------------1-------|
d --0h-2--2-----2-----0--------------0-------------------|
g --3-----3-----3-----------0h-2--2-----------2----------|
b --------------------------3-----3-----0h-3-------------|
E -------------------------------------------------------|

e --------------1h-0------------------0-------------------|
a --------------3-----------0h-1--1---1-------------------|
d --------2-----------2-----2-----------------------------|
g --0-----------------------------------------------------|
b --------------------------------------------------------|
E --------------------------------------------------------|

e -------------------------------------------------------|
a --------------1-----------1----------------------------|
d --------------------2----------------------------------|
g --2-----2----------------------------------------------|
b --3-----3-----------------3----------------------------|
E -------------------------------------------------------|

e --0-----1--------0-------------------------------------|
a --3-----3-----1--1-------------------------------------|
d --------------2----------------------------------------|
g --0--0-----0--------2----------------------------------|
b -------------------------------------------------------|
E -------------------------------------------------------|

e -------------------------------------------------------|
a -----------------------------------------------1-------|
d --0h-2--2-----2-----0---------------0------------------|
g --3-----3-----3-----------0h--2--2----------2----------|
b --------------------------3------3-----0h-3------------|
E -------------------------------------------------------|

e --------------1h-0-------------------------------------|
a --------------3-----------------------1----------------|
d --------2-----------2----------------------------------|
g --0-----------------------------2-----2----------------|
b --------------------------0----------------------------|
E -------------------------------------------------------|

e -------------------------------------------------------|
a --------------1--------1-----------1-------------------|
d --2-----2-----------2----------------------------------|
g --3-----3--------------------2-------------------------|
b -----------------------3-----------3-------------------|
E -------------------------------------------------------|

e ---0h-1--------1h-0--------------0---------------------|
a ---3-----------3-----0h-1--1-----1---------------------|
d ------------2--------2---------------------------------|
g ---0-----0---------------------------------------------|
b -------------------------------------------------------|
E -------------------------------------------------------|

e -------------------------------------------------------|
a -----------------------------------------------------1-|
d --0h-2--2-----2-----0-----------------0----------------|
g --3-----3-----3-----------0h-2-----2--------------2----|
b --------------------------3--------3--------0h-3-------|
E -------------------------------------------------------|

e -------------------------------------------------------|
a --------------0-----------1-----------3----------------|
d --------------0----------------------------------------|
g --------0-----------0-----2-----2-----------2----------|
b -------------------------------------------------------|
E --0----------------------------------------------------|

e --------------------0----------------------------------|
a --------1-----3----------------------------------------|
d --2-----------------------2----------------------------|
g -------------------------------------------------------|
b -------------------------------------------------------|
E -------------------------------------------------------|

e -------------------------------------------------------|
a -------------------------------------------------------|
d -------------------------------------------------------|
g -------------------------------------------------------|
b -------------------------------------------------------|
E -------------------------------------------------------|

Chorus:
e --------------------------3--3--3--3--3--3--3----------|
a --1--1--1--1--3--3--3--3--3--3--3--3--3--3--3----------|
d --2--2--2--2--2--2--2--2--0--0--0--0--0--0--0----------|
g --3--3--3--3--3--3--3--3--2--2--2--2--0--0--0----------|
b --------------------------3--3--3--3--2--2--2----------|
E --------------------------------------3--3--3----------|

e --------------------------3--3--3--3--3--3--3----------|
a --1--1--1--1--3--3--3--3--3--3--3--3--3--3--3----------|
d --2--2--2--2--2--2--2--2--0--0--0--0--0--0--0----------|
g --3--3--3--3--3--3--3--3--2--2--2--2--0--0--0----------|
b --------------------------3--3--3--3--2--2--2----------|
E --------------------------------------3--3--3----------|

e --------------------------3--3--3--3--3--3--3----------|
a --1--1--1--1--3--3--3--3--3--3--3--3--3--3--3----------|
d --2--2--2--2--2--2--2--2--0--0--0--0--0--0--0----------|
g --3--3--3--3--3--3--3--3--2--2--2--2--0--0--0----------|
b --------------------------3--3--3--3--2--2--2----------|
E --------------------------------------3--3--3----------|

Am        C       G
(Safe     and     Sound)

e --3-----------3----------------------3-----------------|
a --1-----------1----------3-----------------------------|
d --------------2--------2-2--------------------0--------|
g --3-----3-----------3----------3-----------0-----------|
b -------------------------------------------------------|
E -------------------------------------------------------|

e --3-----3----------------------------------------------|
a --------1-----3----------------------------------------|
d --------------0----------------------------------------|
g -----2-----2-------------------------------------------|
b --3-----------2----------------------------------------|
E -------------------------------------------------------|

e --3-----------3-----------------------3----------------|
a --1-----------1-----------3----------------------------|
d --------------2--------2--2--------------------0-------|
g --3-----3-----------3-----------3-----------0----------|
b -------------------------------------------------------|
E -------------------------------------------------------|

e --3-----------3h-0-------------------------------------|
a --------------1-----------3----------------------------|
d -----------------------0--0----------------------------|
g --------2-----------2----------------------------------|
b --3-----------------------2----------------------------|
E -------------------------------------------------------|

e --------------------------3--3--3--3--3--3--3----------|
a --1--1--1--1--3--3--3--3--3--3--3--3--3--3--3----------|
d --2--2--2--2--2--2--2--2--0--0--0--0--0--0--0----------|
g --3--3--3--3--3--3--3--3--2--2--2--2--0--0--0----------|
b --------------------------3--3--3--3--2--2--2----------|
E --------------------------------------3--3--3----------|

e --------------------------3--3--3--3--3--3--3----------|
a --1--1--1--1--3--3--3--3--3--3--3--3--3--3--3----------|
d --2--2--2--2--2--2--2--2--0--0--0--0--0--0--0----------|
g --3--3--3--3--3--3--3--3--2--2--2--2--0--0--0----------|
b --------------------------3--3--3--3--2--2--2----------|
E --------------------------------------3--3--3----------|

e --------------------------3--3--3--3--3--3--3----------|
a --1--1--1--1--3--3--3--3--3--3--3--3--3--3--3----------|
d --2--2--2--2--2--2--2--2--0--0--0--0--0--0--0----------|
g --3--3--3--3--3--3--3--3--2--2--2--2--0--0--0----------|
b --------------------------3--3--3--3--2--2--2----------|
E --------------------------------------3--3--3----------|

e --------3-----3----------------------------------------|
a --1-----3-----3----------------------------------------|
d --2-----0-----0----------------------------------------|
g --3-----2-----0----------------------------------------|
b --------3-----2----------------------------------------|
E --------------3----------------------------------------|

Please rate - worked very hard on this tab. thanks
Tap to rate this tab
 
# A B C D E F G H I J K L M N O P Q R S T U V W X Y Z