Song name
# A B C D E F G H I J K L M N O P Q R S T U V W X Y Z

Taylor Swift - Sad Beautiful Tragic tab

Standard Tuning
No Capo

Intro:

e|-2-3--2-3--2-3--5-3-----3----3----3------|
B|---------------------1-0--1-0--1-0-------|
G|-----------------------------------------|
D|-----------------------------------------|     x2
A|-----------------------------------------|
E|-----------------------------------------|


Verse 1:
G D Am C x4


Chorus:
G D Am C x2 or

e|-2-3--2-3--2-3--5-3-----3----3----3------|
B|---------------------1-0--1-0--1-0-------|
G|-----------------------------------------|
D|-----------------------------------------|     x2
A|-----------------------------------------|
E|-----------------------------------------|

 
G D Am C    or

e|-2-3--2-3--7-5--2-3-----3----3-----------|
B|---------------------1-0--1-0--1---------|
G|-----------------------------------2-----|
D|-----------------------------------------|     x1
A|-----------------------------------------|
E|-----------------------------------------|


Verse 2: 
G D Am C x4


Chorus:
G D Am C x2 or

e|-2-3--2-3--2-3--5-3-----3----3-----------|
B|---------------------1-0--1-0--1---------|
G|-----------------------------------------|
D|-----------------------------------------|     x2
A|-----------------------------------------|
E|-----------------------------------------|


G D Am C or

e|-7-7-7-7-7-7-7h5--5-5-5-3--3--3-5--------|
B|-----------------------------------------|
G|-----------------------------------------|
D|-----------------------------------------|     x1
A|-----------------------------------------|
E|-----------------------------------------|



Bridge:
Am C G D x2
Am* G* C* C* (*once)

G

Chorus 2:
G D Am C x6

G*



Not 100% the way the song goes but pretty darn close :) please rate

Tap to rate this tab
# A B C D E F G H I J K L M N O P Q R S T U V W X Y Z