Song name
# A B C D E F G H I J K L M N O P Q R S T U V W X Y Z

Taylor Swift - We Are Never Ever Getting Back Together tab

ARTIST: Taylor Swift
SONG: We Are Never Ever Getting Back Together
ALBUM: RED

TUNING:Standard

If you are playing by yourself, then you can simply strum the chords below during 
the entire song rather than use the picking. 

Chords Used

    Cadd9  G   Dsus  Em or (Em7)                     
e|----3----3----3----0------(3)-|                
B|----3----3----3----0------(3)-| 
G|----0----0----2----0------(0)-|  
D|----2----x----x----2------(2)-| 
A|----3----2----x----2------(2)-|
E|----x----3----x----0------(x)-|

TAP= Tap guitar with guitar pick or finger tips while silencing the strings

THIS IS PLAYED THE ENTIRE SONG
   1 E & A 2 E & A 3 E & A 4 E & A 1 E & A 2 E & A 3 E & A 4 E & A
E|-3-------------------------------3-------------------------------|
B|-3-------T-------------3---3-----3-----T-T-------------0---0-----|
G|-0-------A-----------0-------0---2-----A-A-----------0-------0---|
D|-2-------P-----0---0-----------0-------P-P-----2---2-----------2-|
A|-3---------------------------------------------------------------|
E|-----------------3-------------------------------0---------------|

Use this if you don't want to use the pickings above
Strumming pattern is whatever you want    
   1 E & A 2 E & A 3 E & A 4 E & A 
E|-3-------3-------3-------0-------|
B|-3-------3-------3-------0-------|
G|-0-------0-------2-------0-------|
D|-2-------x-------x-------2-------|
A|-3-------2-------x-------2-------|
E|-x-------3-------x-------0-------|


CHORUS (3rd time thru, you can use a normal strumming pattern)
   D   D   D U D U D   D   D U D U D   D   D U D U D   D U D   D U   
   1 E & A 2 E & A 3 E & A 4 E & A 1 E & A 2 E & A 3 E & A 4 E & A
E|-3---3---x-x-x-x-3---3---x-x-x-x-3---3---x-x-x-x-0---0-0-3---3-3-|
B|-3---3---x-x-x-x-3---3---x-x-x-x-3---3---x-x-x-x-0---0-0-3---3-3-|
G|-0---0---x-x-x-x-0---0---x-x-x-x-2---2---x-x-x-x-0---0-0-2---2-2-|
D|-2---2---x-x-x-x-x---x---x-x-x-x-x---x---x-x-x-x-2---2-2-----x-x-|
A|-3---3---x-x-x-x-2---2---x-x-x-x-x---x---x-x-x-x-2---2-2-----x-x-|
E|-x---x---x-x-x-x-3---3---x-x-x-x-x---x---x-x-x-x-0---0-0-----x-x-|

PLEASE RATE AND COMMENT!
THANKS!

Tap to rate this tab
 
# A B C D E F G H I J K L M N O P Q R S T U V W X Y Z