Song name
# A B C D E F G H I J K L M N O P Q R S T U V W X Y Z

Taylor Swift - Treacherous tab

Hey guys this is my first tab so...yeah, If there's anything wrong please leave a
comment or contact me through email.(windsquid93@hotmail.com)

TAYLOR SWIFT-TREACHEROUS
STANDARD TUNING
CAPO 7
DON'T DEPEND ON ME FOR THE STRUMMING! LISTEN TO THE SONG! ;)

INTRO:
     G     Dsus4   A7sus4  Cadd9
e|---3-------3-------3-------3-----|
B|---3-------3-------3-------3-----|
G|---0-----0h2-----0h2-------0 x 2-|
D|---0-------------0h2-------2-----|
A|---2-----------------------3-----|
E|---3-----------------------0-----|

And the verse is pretty much the same, but just incase you missed it the first time ;)

VERSE(S):
"Put your lips close to mine...."
     G     Dsus4   A7sus4  Cadd9
e|---3-------3-------3-------3-----|
B|---3-------3-------3-------3-----|
G|---0-----0h2-----0h2-------0 x 4-|
D|---0-------------0h2-------2-----|
A|---2-----------------------3-----|
E|---3-----------------------0-----|

So apart from the BRIDGE you pretty much keep your 4th and 5th fingers(the last two
fingers, pinky and ring)on:
e|-3
B|-3

The "HOOK" is exactly the same as the INTRO/VERSE.

HOOK:
"This slope is Treacherous"
     G     Dsus4   A7sus4  Cadd9
e|---3-------3-------3-------3-----|
B|---3-------3-------3-------3-----|
G|---0-----0h2-----0h2-------0 x 2-|
D|---0-------------0h2-------2-----|
A|---2-----------------------3-----|
E|---3-----------------------0-----|

BACK TO VERSE:
During this VERSE the chord "G" is held longer.

"I can't decide if it's a choice..."
     G     Dsus4   A7sus4  Cadd9
e|---3-------3-------3-------3-----|
B|---3-------3-------3-------3-----|
G|---0-----0h2-----0h2-------0 x 4-|
D|---0-------------0h2-------2-----|
A|---2-----------------------3-----|
E|---3-----------------------0-----|

RIFF DURING VERSE 2:
"And all we are is skin and bone....but you're friction"
e|---------3--|
B|-----3------| x 4
G|-0----------|

BACK TO HOOK:
"This slope is Treacherous......and I like it"
     G     Dsus4   A7sus4  Cadd9
e|---3-------3-------3-------3-----|
B|---3-------3-------3-------3-----|
G|---0-----0h2-----0h2-------0 x 2-|
D|---0-------------0h2-------2-----|
A|---2-----------------------3-----|
E|---3-----------------------0-----|

(Hold the "Cadd9" chord longer.)

BRIDGE
"Two headlights shine through the sleepless night....."
     D       Em       C
e|---3--------0-------0----|
B|---2--------0-------1----|
G|---3--------0-------0----|
D|---0--------2-------2----|
A|---0--------2-------3----|
E|---0--------0-------0----|

HOOK:
"This hope is treacherous...."
     G     Dsus4   A7sus4  Cadd9
e|---3-------3-------3-------3-|
B|---3-------3-------3-------3-|
G|---0-----0h2-----0h2-------0-|
D|---0-------------0h2-------2-|
A|---2-----------------------3-|
E|---3-----------------------0-|

When Taylor starts sing "I, I, I... I, I, I... I, I, I..." the "A7sus4" and "Cadd9"
chord are held a longer than usual.

BRIDGE:
"Two headlights shine through the sleepless night....."
     D       Em       C
e|---3--------0-------0----|
B|---2--------0-------1----|
G|---3--------0-------0----|x 5
D|---0--------2-------2----|
A|---0--------2-------3----|
E|---0--------0-------0----|

HOOK/END:
"This slope is Treacherous......and I like it"
     G     Dsus4   A7sus4  Cadd9
e|---3-------3-------3-------3-|
B|---3-------3-------3-------3-|
G|---0-----0h2-----0h2-------0-|
D|---0-------------0h2-------2-|
A|---2-----------------------3-|
E|---3-----------------------0-|

End on "Cadd9"

MOAR TIPS! ;)

TIP:Start the song softly and go loud during the BRIDGE, except for the 3rd and 4th time
you play the HOOK, its there that you go play softly again.

TIP:During the INTRO and VERSE try and keep the emphasis on the:
e|-3
B|-3
And by that I mean in between each chord (or change) try strumming on the "e" and "B" 
string more often.





Please rate this tab and remember if you think there are any mistakes just leave a
comment or email me on windsquid93@hotmail.com.......or if you want to just talk to me on
that email thats fine...or whatever ;)
Tap to rate this tab
# A B C D E F G H I J K L M N O P Q R S T U V W X Y Z