Song name
# A B C D E F G H I J K L M N O P Q R S T U V W X Y Z

Taylor Swift - Sad Beautiful Tragic tab

-------------------------------------------------------------------------------
		     Sad Beautiful Tragic Mandolin Tab - Taylor Swift
-------------------------------------------------------------------------------
Tabbed by: IngFish117
E-mail: taylor.steve306@gmail.com

Standard Mandolin Tuning:GDAE
First time tabbing so some comments would be great if I get some bits wrong, corrections would be even 
better :)
This tab is written for a mandolin player as I can never find any mandolin tabs, enjoy.
hopefully I'll bee editing this when I can tab more.
here is the intro at least, this is also used in the chorus


E|----------------------------------------|
A|----------------------------------------|
D|4-5--4-5--4-5--7-5-----5-----5-----5----|
G|--------------------5p4---5p4---5p4---5-|




after one chorus it does something like this, not 100% sure on this bit so please correct me if 
i'm wrong :)


E|---------------------------------|
A|---------------------------------|
D|4-5--4-5--9-7--4-5-----5---------|
G|--------------------5p4---7-5-2-0|
Tap to rate this tab
# A B C D E F G H I J K L M N O P Q R S T U V W X Y Z