Song name
# A B C D E F G H I J K L M N O P Q R S T U V W X Y Z

Taylor Swift - Tim Mcgraw tab

e---------------------------------------------------------------|
b---3^5^3-----------5b------3^5^3-----------3^5^3------3--------|
g-------------5---------------------5---2-----------5-----------|
d---------------------------------------------------------------|
a---------------------------------------------------------------|
E---------------------------------------------------------------|

e---------------------------------------------------------------|
b---3^5^3--------3----3^1--1--1--1^0^1--------------------------|
g-----------5---------------------------------------------------|
d---------------------------------------------------------------|
a---------------------------------------------------------------|
E---------------------------------------------------------------|

My first tab. Sounds good to me.
For Briana
Tap to rate this tab
 
# A B C D E F G H I J K L M N O P Q R S T U V W X Y Z