Song name
# A B C D E F G H I J K L M N O P Q R S T U V W X Y Z

Taylor Swift - Shouldve Said No tab

Help us improve GuitareTab! Take a short survey!
i was learning this tab for someone special when i realized that nobody had tabbed out 
banjo. i could only ear the intro and the picking part before the chorus. i'm almost 
sure. so here it is. so read it 'n weep!!

Standard Tuning

intro (play all the first time but after the first chorus play second half)
e|-------------------------------------------------------|
B|-------------------------------------------------------|
G|-2-4-2-0-------2-4-2-0-----2-4-2-0-2-2-2-2-0-2/4~------|
D|---------0h2~----------2~------------------------------|
A|-------------------------------------------------------|
E|-------------------------------------------------------|

e|-------------------------------------------------------|
B|-------------------------------------------------------|
G|-0-2-4-2-0-------2-4-2-0--------0--2~--0~--------------|
D|-----------0h2~----------2~--0h2----------4~-----------|
A|-------------------------------------------------------|
E|-------------------------------------------------------|

Verse? go look else where

pre-chorus
    Em      Em     C     C       G     G      D     D
e|-----0-----0~-----0------0~-----2-----2~-----2-----2~--|
B|-----0-----0~-----1------1~-----2-----2~-----3-----3~--|
G|-----0-----0~-----0------0~-----0-----0~----2----2-----|
D|---2-----2------2------2--------0-----0~--0----0-------|
A|-2-----2------3------3--------2-----2------------------|
E|----------------------------3-----3--------------------|

      C     C          D  D  D  D  D
e|-------0------0~-----2--2--2--2--2|
B|-------1------1~-----3--3--3--3--3|
G|-------0------0~-----2--2--2--2--2|
D|-----2------2--------0--0--0--0--0|
A|---3------3-----------------------|
E|----------------------------------|

That's all folks until next time

Robb
Related for Shouldve Said No tab