Song name
# A B C D E F G H I J K L M N O P Q R S T U V W X Y Z

Tcs - Laugh It Up tab

           electric guitar  	                            (bass below)
intro 7 times through

e------------------------------------------|
d------------------------------------------|
g------------------------------------------|
b----5555----------------------------------|
a----3333---5555---3333---7777-------------|
e-------------3333---1111---5555-----------|

verse one 3 times through

e------------------------------------------------------------------|
g------------------------------------------------------------------|
d------------------------------------------------------------------|
b------------------------------------------------------------------|
a-------7---7---7---7---5---5---5---5---3---3---3---3--------------|
e----5---5---5---5---3---3---3---3---1---1---1---1-----------------|

    chorus 3 times through

e----------------------------------|
g----------------------------------|
d----------------------------------|
b----------------------------------|
a----3333---5555---7777------------|
e----1111---3333---5555------------|

 verse two (intro) 6 times through

e------------------------------------------|
d------------------------------------------|
g------------------------------------------|
b----5555----------------------------------|
a----3333---5555---3333---7777-------------|
e-------------3333---1111---5555-----------|


 bass tabs   repeat through whole song

e------------------|
g------------------|
d------------------|
b------------------|
a----3-------------|
e-------3---1---5--|
Tap to rate this tab
# A B C D E F G H I J K L M N O P Q R S T U V W X Y Z