Song name
# A B C D E F G H I J K L M N O P Q R S T U V W X Y Z

Tea Party - Transmission tab

Transmission - Tea Party

Tuning - CGCGBbE

Intro:
E |----------------------------------------------------|
Bb|----------------------------------------------------|
G |.-----0---3p1-0-------0-------0---3p1-0-------0----.|
C |.-4/5---0-------5/7-8---5-4/5---0-------5/7-8------.|
G |----------------------------------------------------|
C |----------------------------------------------------|
* let all notes ring

|--1p0-------------------------1p0------------------------|--0----------|
|------2p0-------------------------2p0--------------------|--0----------|
|.---------1p0-----0---3p1-0-----------1p0-----0---------.|--0----------|
|.-------------4/5---0-------5-------------4/5---0-----0-.|--0----------|
|--------------------------------------------------3/5----|--0----------|
|---------------------------------------------------------|--0----------|

|--0-----------0-----------0-----------0-----------|--0------------------|
|--0-----------0-----------0-----------0-----------|--0------------------|
|.-5-----------6-----------3-----------6----------.|--5------------------|
|.-0-----------0-----------0-----------0----------.|--0------------------|
|--5-----------6-----------3-----------6-----------|--5------------------|
|--0-----------0-----------0-----------0-----------|--0------------------|
(live only)
|--0-0---------0-0---------0-0---------0-0--|
|--0-0---------0-0---------0-0---------0-0--|
|--5-5---------6-6---------3-3---------6-6--|
|--0-0---------0-0---------0-0---------0-0--|
|--5-5---------6-6---------3-3---------6-6--|
|--0-0---------0-0---------0-0---------0-0--|
Betrayed by the...

                                      h  h
|---------------------------------------------|
|--0---------0---------0---------0---<5>------|
|.-3/5-------3/5-------3/5-------6\-----<5>--.|
|.-0---------0---------0---------0-----------.|
|--3/5-------3/5-------3/5-------6\-----------|
|--0---------0---------0---------0------------|
 tell me what I have...
Tap to rate this tab
 
# A B C D E F G H I J K L M N O P Q R S T U V W X Y Z