Guitaretab - guitar tabs
Song name
# A B C D E F G H I J K L M N O P Q R S T U V W X Y Z

Tea Party - Chimera tab

----------------------------------------------------------------------------
			     Chimera  The Tea Party
----------------------------------------------------------------------------
Tabbed by: Roy

Tuning: Standard

No one else had this done so I figured I should do it. Great band from
the cold north

Piano tabbed for guitar
e|------------------------------------------------------|
B|------------------------------------------------------|
G|------------------------------------------------------|
D|-----5---3----5-6---3---------------------------------|
A|------------------------------------------------------|
E|--3----3----3-----3-----------------------------------|
[ Tab from: http://www.guitaretab.com/t/tea-party/184780.html ]
Chord played at :37 until chorus
    W
e|------------------------------------------------------|
B|--6---------------------------------------------------|
G|--6---------------------------------------------------|
D|--6---------------------------------------------------|
A|--4---------------------------------------------------|
E|------------------------------------------------------|

Choruses
e|-------------------------------------------------------------|
B|-------------------------------------------------------------|
G|-3/8--3-333/8--333/8--333/8--3/8--333/8--8-8-8-8-7-7-7-7-5---|
D|-3/x--3-333/x--333/x--333/x--3----333/-----------------------|
A|-1/6--1-111/6--111/6--111/6--1----111/-----------------------|
E|-------------------------------------------------------------|

Solo
e|----------------------------------------------------------------------|
B|----------------------------------------------------------------------|
G|-5 (delay)--10bd-6-8/1010bd-8---8/101010bu---8/101010bu----7h8p7----| x2 
D|-------------------------------------------------------------------8--|
A|----------------------------------------------------------------------|
E|----------------------------------------------------------------------|


| bu bend up
| /  slide up
| \  slide down
| h  hammer-on
| p  pull-off
| ~  vibrato
| +  harmonic
| x  Mute note
===============================================================================

Related for Chimera tab