Song name
# A B C D E F G H I J K L M N O P Q R S T U V W X Y Z

Tea Party - Touch tab

#----------------------------------PLEASE NOTE---------------------------------#
#This file is the author's own work and represents their interpretation of the #
#song. You may only use this file for private study, scholarship, or research. #
#------------------------------------------------------------------------------##

Touch
Words and Music by Jeff Martin
Performed by The Tea Party
Tabbed by educatedbum@hotmail.com (Andy Walker)
from Windsor, Ontario, Canada

There isn't enough Tea Party tab on the net so i thought this might help.
Sounds good to me.  


Intro with distortion
A-|----------2b----------3b---------2-----------------------
E-|--2-0-2-0-----2-0-2-0----2-0-2-0----2-0-2-0-2-3-2-0------


Main Riff                                                                               
E-|---------------------------------------------------------------------------|
B-|---------------------------------------------------------------------------|
G-|-----------4b----------5b-----------4---------------------------------------|
D-|--4-4-4-4--4b--4-4-4-4-5b--4-4-4-4--4----------------------------------------
A-|--4-4-4-4--2b--4-4-4-4-3b--4-4-4-4--2----------------------------------------
E-|--2-0-2-0------2-0-2-0-----2-0-2-0-----2-0-2-0-2-3-2-0-----------------------

                                                                               
thats about it except for all the weird sounds he puts in, that guy is nuts!

Enjoy                                                                               


Tap to rate this tab
# A B C D E F G H I J K L M N O P Q R S T U V W X Y Z