Song name
# A B C D E F G H I J K L M N O P Q R S T U V W X Y Z

Tea Party - Cathartik tab

TEA PARTY - CATHARTIK SOLO #1


Standard tuning (but the rest of the song is in drop D, I believe)

/ slide up
\ slide down
h  hammer on



This solo comes in halfway through, at 2:25
Listen to the song for the timing


/12-12-12---------------------
----------13-13-13-10-13-/15--
------------------------------		x3
------------------------------
------------------------------
------------------------------


9---9---10--9---9---10--12----
10--10--11--10--10--11--14----
------------------------------
------------------------------
------------------------------
------------------------------
(or play only the top line)


/12-12-12----------------------12-13-15-13-12h13-12h13-12-12-/10--
----------13-13-13-10-13-/15--------------------------------------
------------------------------------------------------------------
------------------------------------------------------------------
------------------------------------------------------------------
------------------------------------------------------------------


/12-12-12----------------------9---9---10--9---9--\----------------
----------13-13-13-10-13-/15---10--10--11--10--10-\---------------
------------------------------------------------------------------
------------------------------------------------------------------
------------------------------------------------------------------
------------------------------------------------------------------
                                (or play only the top line)
Tap to rate this tab
# A B C D E F G H I J K L M N O P Q R S T U V W X Y Z