Guitaretab - guitar tabs
Song name
# A B C D E F G H I J K L M N O P Q R S T U V W X Y Z

Tea Party - Luxuria tab

Luxuria
The Tea Party
Seven Circles

INTRO : Vocal

VERSE
D|----------------------------------|
A|----------------------------------|
F|----------------------------------|
C|----------------------------------|X2
G|--2-----3-----3-----3-------------|
C|----2-2---2-2---2-2---2-2---------|

D|------------------------------------------0-------|
A|------------------------------------------0-------|
F|------------------------------------------0-------|
C|-------------------------------------(2)--2-------|
G|--2-----3-----5-----3----------------(2)--2-------|
C|----2-2---2-2---2-2---2-2-3/5\3-(0)--(2)--2-------|

PRE-CHORUS

D|------0---(0)---------0---(0)--------------|
A|------0---(0)---------0---(0)--------------|
F|-------------------------------------------|
C|--3-------(3)-----5-------(5)--------------|X2
G|--3-------(3)-----5-------(5)--------------|
C|--3-------(3)-----5-------(5)--------------|

CHORUS
[ Tab from: http://www.guitaretab.com/t/tea-party/82760.html ]
D|----------------------------------|
A|----------------------------------|
F|----------------------------------|
C|----------------------------------| X8
G|-----5--3---------5-3-------------|
C|-0--0-----5-3-0--0----5-3-0-------|

BRIDGE

D|-----------------------------------|
A|-----------------------------------|
F|-----------------------------------|
C|-----------------------------------|X4
G|---------------------------3p5h3---|
C|-3--0-0-3--0-0-3--0-0-x-3p5-----p5-|

ENDING CHORUS

D|-----------------------------|
A|-----------------------------|  
F|-----------------------------|
C|-----------------------------|X16
G|-----7--5---------7--5-------|
C|-2--2-----7-5-2--2-----7-5---|

END

D|----------------------------------|
A|----------------------------------|
F|----------------------------------|
C|----------------------------------|X2
G|--2-----3-----3-----3-------------|
C|----2-2---2-2---2-2---2-2---------|

D|----------------------------|
A|----------------------------|
F|----------------------------|
C|----------------------------|
G|--2-----3-----5-----3-------|
C|----2-2---2-2---2-2---2-2---|

D|----------------------------------|
A|----------------------------------|
F|----------------------------------|
C|----------------------------------|X3
G|--2-----3-----3-----3-------------|
C|----2-2---2-2---2-2---2-2---------|

Have Fun
Pasko
Related for Luxuria tab
Luxuria chords by Tea Party