Song name
# A B C D E F G H I J K L M N O P Q R S T U V W X Y Z

Team Dresch - Dont Try Suicide tab

Donít Try Suicide - Team Dresch

Intro/Verse
e|-----3--|
b|-----3--|
g|-----0--|
d|-----0--|
a|--------|
E|--3-----|

Chorus
e|--------------|
b|--------------|
g|--9--7--5-----|
d|--9--7--5--5--|
a|--7--5--3--5--|
E|-----------3--|

Solo
e|-----------|
b|-----------|
g|-----4--5--|
d|--5--4--5--|
a|--5--2--3--|
E|--3--------|
Tap to rate this tab
# A B C D E F G H I J K L M N O P Q R S T U V W X Y Z