Song name
# A B C D E F G H I J K L M N O P Q R S T U V W X Y Z

Team Elite - Team Elite Theme tab

Help us improve GuitareTab! Take a short survey!
Tuning:Drop D

E|--------------------------------------------------------------------------|
B|--------------------------------------------------------------------------|
G|--------------------------------------------------------------------------|
D|--------------------------------------------------------------------------|
A|-x-x-x--0-3-5-6-5-3-3-0-3-0-0--0-3-5-6-5-3-3-0-3-0-0--0-3-5-6-5-3-3-0-3-0-|
D|-x-x-x--0-3-5-6-5-3-3-0-3-0-0--0-3-5-6-5-3-3-0-3-0-0--0-3-5-6-5-3-3-0-3-0-|

(Tremolo Picking)
E|--------------------------------------------------------------------------|
B|--------------------------------------------------------------------------|
G|--------------------------------------------------------------------------|
D|--------------------------------------------------------------------------|
A|-0-0-3-0-0-3-0-0-3-0-3-0-0-3-0-0-3-0-3------------------------------------|
D|-0-0-3-0-0-3-0-0-3-0-3-0-0-3-0-0-3-0-3------------------------------------|

E|---------------------------------------------------------------------------|
B|---------------------------------------------------------------------------|
G|---------------------------------------------------------------------------|
D|---------------------------------------------------------------------------|
A|-0-0-5-0-0-5-0-0-5-0-5-0-0-5-0-0-5-0-5-------------------------------------|
D|-0-0-5-0-0-5-0-0-5-0-5-0-0-5-0-0-5-0-5-------------------------------------|

E|--------------------------------------------------------------------------|
B|--------------------------------------------------------------------------|
G|--------------------------------------------------------------------------|
D|--------------------------------------------------------------------------|
A|-0-6-0-0-6-0-0-6-0-6-0-0-6------------------------------------------------|
D|-0-6-0-0-6-0-0-6-0-6-0-0-6------------------------------------------------|

e|--------------------------------------------------------------------------|
B|--------------------------------------------------------------------------|
G|--------------------------------------------------------------------------|
D|--------------------------------------------------------------------------|
A|-0-5-0-0-5-0-0-5-0-5-0-0-5------------------------------------------------|
D|-0-5-0-0-5-0-0-5-0-5-0-0-5------------------------------------------------|

E|--------------------------------------------------------------------------|
B|--------------------------------------------------------------------------|
G|--------------------------------------------------------------------------|
D|--------------------------------------------------------------------------|
A|-0-3-0-0-3-0-0-3-0-3-0-0-3------------------------------------------------|
D|-0-3-0-0-3-0-0-3-0-3-0-0-3------------------------------------------------|

E|---------------------------------------------------------------------------|
B|---------------------------------------------------------------------------|
G|---------------------------------------------------------------------------|
D|---------------------------------------------------------------------------|
A|-0-0-3-0-0-3-0-0-3-0-3-0-0-3-0-0-3-0-3-------------------------------------|
D|-0-0-3-0-0-3-0-0-3-0-3-0-0-3-0-0-3-0-3-------------------------------------|

E|--------------------------------------------------------------------------|
B|--------------------------------------------------------------------------|
G|--------------------------------------------------------------------------|
D|--------------------------------------------------------------------------|
A|-0-0-5-0-0-5-0-0-5-0-5-0-0-5-0-0-5-0-5------------------------------------|
D|-0-0-5-0-0-5-0-0-5-0-5-0-0-5-0-0-5-0-5------------------------------------|

E|--------------------------------------------------------------------------|
B|--------------------------------------------------------------------------|
G|--------------------------------------------------------------------------|
D|--------------------------------------------------------------------------|
A|-0-6-0-0-6-0-0-6-0-6-0-0-6------------------------------------------------|
D|-0-6-0-0-6-0-0-6-0-6-0-0-6------------------------------------------------|

e|--------------------------------------------------------------------------|
B|--------------------------------------------------------------------------|
G|--------------------------------------------------------------------------|
D|--------------------------------------------------------------------------|
A|-0-5-0-0-5-0-0-5-0-5-0-0-5------------------------------------------------|
D|-0-5-0-0-5-0-0-5-0-5-0-0-5------------------------------------------------|

E|--------------------------------------------------------------------------|
B|--------------------------------------------------------------------------|
G|--------------------------------------------------------------------------|
D|--------------------------------------------------------------------------|
A|-0-3-0-0-3-0-0-3-0-3-0-0-3------------------------------------------------|
D|-0-3-0-0-3-0-0-3-0-3-0-0-3------------------------------------------------|

(Regular)
E|--------------------------------------------------------------------------|
B|--------------------------------------------------------------------------|
G|--------------------------------------------------------------------------|
D|--------------------------------------------------------------------------|
A|-3-(5)--3-(5)--3-(5)-3-3-3-3-3--------------------------------------------|
D|-3-(5)--3-(5)--3-(5)-3-3-3-3-3--------------------------------------------|

E|--------------------------------------------------------------------------|
B|--------------------------------------------------------------------------|
G|--------------------------------------------------------------------------|
D|--------------------------------------------------------------------------|
A|-3-(5)--3-(5)--3-(5)-3-3-3-3-3--------------------------------------------|
D|-3-(5)--3-(5)--3-(5)-3-3-3-3-3--------------------------------------------|

E|--------------------------------------------------------------------------|
B|--------------------------------------------------------------------------|
G|--------------------------------------------------------------------------|
D|--------------------------------------------------------------------------|
A|-0-3-5-6-5-3-3-0-3-0-0--0-3-5-6-5-3-3-0-3-0-0--0-3-5-6-5-3-3-0-3-0--------|
D|-0-3-5-6-5-3-3-0-3-0-0--0-3-5-6-5-3-3-0-3-0-0--0-3-5-6-5-3-3-0-3-0--------|

(Tremolo Picking)
E|--------------------------------------------------------------------------|
B|--------------------------------------------------------------------------|
G|--------------------------------------------------------------------------|
D|--------------------------------------------------------------------------|
A|-0-0-3-0-0-3-0-0-3-0-3-0-0-3-0-0-3-0-3------------------------------------|
D|-0-0-3-0-0-3-0-0-3-0-3-0-0-3-0-0-3-0-3------------------------------------|

E|---------------------------------------------------------------------------|
B|---------------------------------------------------------------------------|
G|---------------------------------------------------------------------------|
D|---------------------------------------------------------------------------|
A|-0-0-5-0-0-5-0-0-5-0-5-0-0-5-0-0-5-0-5-------------------------------------|
D|-0-0-5-0-0-5-0-0-5-0-5-0-0-5-0-0-5-0-5-------------------------------------|

E|--------------------------------------------------------------------------|
B|--------------------------------------------------------------------------|
G|--------------------------------------------------------------------------|
D|--------------------------------------------------------------------------|
A|-0-6-0-0-6-0-0-6-0-6-0-0-6------------------------------------------------|
D|-0-6-0-0-6-0-0-6-0-6-0-0-6------------------------------------------------|

e|--------------------------------------------------------------------------|
B|--------------------------------------------------------------------------|
G|--------------------------------------------------------------------------|
D|--------------------------------------------------------------------------|
A|-0-5-0-0-5-0-0-5-0-5-0-0-5------------------------------------------------|
D|-0-5-0-0-5-0-0-5-0-5-0-0-5------------------------------------------------|

E|--------------------------------------------------------------------------|
B|--------------------------------------------------------------------------|
G|--------------------------------------------------------------------------|
D|--------------------------------------------------------------------------|
A|-0-3-0-0-3-0-0-3-0-3-0-0-3------------------------------------------------|
D|-0-3-0-0-3-0-0-3-0-3-0-0-3------------------------------------------------|

E|---------------------------------------------------------------------------|
B|---------------------------------------------------------------------------|
G|---------------------------------------------------------------------------|
D|---------------------------------------------------------------------------|
A|-0-0-3-0-0-3-0-0-3-0-3-0-0-3-0-0-3-0-3-------------------------------------|
D|-0-0-3-0-0-3-0-0-3-0-3-0-0-3-0-0-3-0-3-------------------------------------|

E|--------------------------------------------------------------------------|
B|--------------------------------------------------------------------------|
G|--------------------------------------------------------------------------|
D|--------------------------------------------------------------------------|
A|-0-0-5-0-0-5-0-0-5-0-5-0-0-5-0-0-5-0-5------------------------------------|
D|-0-0-5-0-0-5-0-0-5-0-5-0-0-5-0-0-5-0-5------------------------------------|

E|--------------------------------------------------------------------------|
B|--------------------------------------------------------------------------|
G|--------------------------------------------------------------------------|
D|--------------------------------------------------------------------------|
A|-0-6-0-0-6-0-0-6-0-6-0-0-6------------------------------------------------|
D|-0-6-0-0-6-0-0-6-0-6-0-0-6------------------------------------------------|

e|--------------------------------------------------------------------------|
B|--------------------------------------------------------------------------|
G|--------------------------------------------------------------------------|
D|--------------------------------------------------------------------------|
A|-0-5-0-0-5-0-0-5-0-5-0-0-5------------------------------------------------|
D|-0-5-0-0-5-0-0-5-0-5-0-0-5------------------------------------------------|

E|--------------------------------------------------------------------------|
B|--------------------------------------------------------------------------|
G|--------------------------------------------------------------------------|
D|--------------------------------------------------------------------------|
A|-0-3-0-0-3-0-0-3-0-3-0-0-3------------------------------------------------|
D|-0-3-0-0-3-0-0-3-0-3-0-0-3------------------------------------------------|

(After open, Tremolo Picking)
D|--------------------------------------------------------------------------|
B|--------------------------------------------------------------------------|
G|--------------------------------------------------------------------------|
D|--------------------------------------------------------------------------|
A|-0------------------------------------------------------------------------|
D|-0-----5-3-5-6-5-3-0------------------------------------------------------|
Related for Team Elite Theme tab