Song name
# A B C D E F G H I J K L M N O P Q R S T U V W X Y Z

Team Me - Favourite Ghost tab

-------------------------------------------------------------------------------
                             Favourite Ghost - Team Me
-------------------------------------------------------------------------------
Tabbed by: Hallvard97
E-mail: ths@live.no

Tuning: E-A-C-G-B-D
Capo: 4th fret

Amazing song on their debut album, To The Treetops. 
I have watched a couple of live videos, and it looks like Marius plays it on the lower strings,
only a few frets up. Anyway, my way of playing it sounds pretty similar. Make sure to get the
tuning right!

INTRO
D|-----------0------------0------------0----------------------------------------|
B|--4------------4------------4------------4------------------------------------|
G|--------0------------0------------0-------------------------------------------|
C|-----0------------0------------0----------------------------------------------|
A|--3------------3------------3------------3------------------------------------|
E|------------------------------------------------------------------------------|

INTRO/VERSE
D|-----------0------------------------0---------------0----------------0--------|
B|--4--------------4----6----8-------------8---------------11-------------------|
G|--------0----0-------------------0----0----------0----0-----------0-----0-----|
C|-----0------------------------0--------------0-----------------0--------------|
A|--3--------------3----5----6-------------6---------------10-------------------|
E|------------------------------------------------------------------------------|

D|-----------0--------------0--------------0---------------0---------------0----|
B|--10-------------6--------------8---------------8--------------8--------------|
G|--------0----0---------0-----0--------0-----0---------0----0----------0----0--|
C|-----0--------------0--------------0---------------0---------------0----------|
A|--8--------------5--------------6---------------6--------------6--------------|
E|------------------------------------------------------------------------------|

D|-----------------------0----------------0-----------------0-------------------|
B|--8----6----4-----------------4----------------4------------------------------|
G|--------------------0-----0----------0-----0----------0------0----------------|
C|----------------0-----------------0----------------0--------------------------|
A|--6----5----3-----------------3----------------3------------------------------|
E|------------------------------------------------------------------------------|

D|-------------------------0---------------0------------------0-----------------|
B|--11----10----8----------------8-----------------8-----------------8----------|
G|----------------------0-----0---------0-----0------------0-----0--------------|
C|------------------0----------------0-----------------0------------------------|
A|--10----8-----6----------------6-----------------6-----------------6----------|
E|------------------------------------------------------------------------------|

D|------------0-------------------0--------------------0------------------0-----|
B|--1-----------------3-------------------3-------------------3-----------------|
G|---------0-----0------------0------0-------------0------0-----------0------0--|
C|-----0------------------0--------------------0------------------0-------------|
A|--------------------2-------------------2-------------------2-----------------|
E|--4---------------------------------------------------------------------------|

D|-------------0------------------0-----------------0------------------0--------|
B|--1------------------1------------------1------------------1------------------|
G|----------0-----0------------4-----4-----------4-----4-----------4-----4------|
C|------0------------------0------------------0-----------------0---------------|
A|------------------------------------------------------------------------------|
E|--4------------------3------------------3------------------3------------------|

[REPEAT x6]


FIRST CHORUS 
D|--------------0----------------------0----------------|
B|--8--------------------8------------------------------|
G|----------0------0---------------0------0-------------|
C|------0---------------------0-------------------------|
A|--6--------------------6------------------------------|
E|------------------------------------------------------|

D|--------------0---------------------0-----------------|
B|--10------------------11------------------------------|
G|----------0------0--------------0------0--------------|
C|------0---------------------0-------------------------|
A|--8-------------------10------------------------------|
E|------------------------------------------------------|

D|---------------0---------------------0----------------|
B|--5--------------------5------------------------------|
G|-----------0------0-------------0-------0-------------|
C|-------0-------------------0--------------------------|
A|--3--------------------3------------------------------|
E|------------------------------------------------------|

D|---------------0---------------------0----------------|
B|--4--------------------6------------------------------|
G|-----------0------0-------------0-------0-------------|
C|-------0-------------------0--------------------------|
A|--3--------------------5------------------------------|
E|------------------------------------------------------|

[REPEAT x3]

D|--------------0----------------------0----------------|
B|--8--------------------8------------------------------|
G|----------0------0---------------0------0-------------|
C|------0---------------------0-------------------------|
A|--6--------------------6------------------------------|
E|------------------------------------------------------|

D|--------------0---------------------0-----------------|
B|--10------------------11------------------------------|
G|----------0------0--------------0------0--------------|
C|------0---------------------0-------------------------|
A|--8-------------------10------------------------------|
E|------------------------------------------------------|

D|---------------0---------------------0----------------|
B|--5--------------------5------------------------------|
G|-----------0------0-------------0-------0-------------|
C|-------0-------------------0--------------------------|
A|--3--------------------3------------------------------|
E|------------------------------------------------------|

D|---------------0---------------------0----------------|
B|--5--------------------5------------------------------|
G|-----------0------0-------------0-------0-------------|
C|-------0-------------------0--------------------------|
A|--3--------------------3------------------------------|
E|------------------------------------------------------|

VERSE AGAIN

SECOND CHORUS 
D|--------------0----------------------0----------------|
B|--8--------------------8------------------------------|
G|----------0------0---------------0------0-------------|
C|------0---------------------0-------------------------|
A|--6--------------------6------------------------------|
E|------------------------------------------------------|

D|--------------0---------------------0-----------------|
B|--10------------------11------------------------------|
G|----------0------0--------------0------0--------------|
C|------0---------------------0-------------------------|
A|--8-------------------10------------------------------|
E|------------------------------------------------------|

D|---------------0---------------------0----------------|
B|--5--------------------5------------------------------|
G|-----------0------0-------------0-------0-------------|
C|-------0-------------------0--------------------------|
A|--3--------------------3------------------------------|
E|------------------------------------------------------|

D|---------------0-------|
B|--4--------------------|
G|-----------0------0----|
C|-------0---------------|
A|--3--------------------|
E|-----------------------|

[REPEAT ALOT OF TIMES] 

SECOND CHORUS VARIATION
D|--------------8----------------------10---------------|
B|--8--------------------8------------------------------|
G|----------0------0---------------0------0-------------|
C|------0---------------------0-------------------------|
A|--6--------------------6------------------------------|
E|------------------------------------------------------|

D|--------------12---------------------5----------------|
B|--10------------------11------------------------------|
G|----------0------0--------------0-------0-------------|
C|------0---------------------0-------------------------|
A|--8-------------------10------------------------------|
E|------------------------------------------------------|

D|---------------5---------------------5----------------|
B|--5--------------------5------------------------------|
G|-----------0------0-------------0-------0-------------|
C|-------0-------------------0--------------------------|
A|--3--------------------3------------------------------|
E|------------------------------------------------------|

D|---------------5-------|
B|--4--------------------|
G|-----------0------0----|
C|-------0---------------|
A|--3--------------------|
E|-----------------------|



************************************

| /   slide up
| \   slide down
| h   hammer-on
| p   pull-off
| ~   vibrato
| +   harmonic
| x   Mute note
| b   Bend
| pb  Pre-bend
| br  Bend release
| pbr Pre-bend release
| brb Bend release bend

************************************
Tap to rate this tab
# A B C D E F G H I J K L M N O P Q R S T U V W X Y Z