Song name
# A B C D E F G H I J K L M N O P Q R S T U V W X Y Z

Team Sleep - Your Skull Is Red Acoustic tab

 Whats up another team sleep song. check it out and tell me what you think?
dee_newman2003@yahoo.com

e---------------------------------------------------|
b----9-------------------------9--------------------|
g----8---------6---------------8--------13----------|
d----6(8-times)6(8-times)------6(8-times)x(8-times)-|
a----7---------4---------------7--------11----------|
E----0---------0---------------0---------0----------|

Then repeat

e----x---------------------------------------------|
b----x---------------------------------------------|
g----x-----------13--------------------------------|
d----2(8-times)---x(8-times)-----------------------|
a----2-----------11--------------------------------|
E----0------------0--------------------------------|

This part is in there somewere
Tap to rate this tab
# A B C D E F G H I J K L M N O P Q R S T U V W X Y Z