Song name
# A B C D E F G H I J K L M N O P Q R S T U V W X Y Z

Team Sleep - Kool Aid Party tab

-----------------------------------------------------------------------------
			                          Kool Aid Party - Team Sleep
-----------------------------------------------------------------------------

Tabbed by: Alex Usatov
09/04/09

Tuning: Drop D

e|-------------------------------------------------|
B|-------------------------------------------------|
G|-----3-0---------3-0---------3-0---------3-0-----|
D|---4-----------4-----------4-----------4---------|
A|-2-----------2-----------2-----------2-----------|
D|-------------------------------------------------|

e|-------------------------------------------------|
B|-------------------------------------------------|
G|-----3-4-3-0-----3-4-3-0-----3-4-3-0-----3-4-3-0-|
D|---4-----------4-----------4-----------4---------|
A|-------------------------------------------------|
D|-2-----------2-----------2-----------2-----------|
Tap to rate this tab
 
# A B C D E F G H I J K L M N O P Q R S T U V W X Y Z